>
 >
I Wish I Was A Girl 2

I Wish I Was A Girl 2 Guitar Tabs

Violent Delight - I Wish I Was A Girl 2 chords, tabs, tablatures, lyrics

Guitar lessons | Add/correct | Request | Top 50 tabs Artists:  A B C D E F G H I J K L M N O P Q R S T U V W X Y Z 0-9

I Wish I Was A Girl 2 Guitar Tabs – Violent Delight

CD, Sheet music, Poster

Do you like I Wish I Was A Girl 2? Share with your friends now
Bass TabsDrum TabsTabsTabs v2Tabs v3
Tuning:  D A D G B E

I think these tabs are 100% correct if not please correct them!
Enjoy!
Also i wanna point out, these tabs are for the official studio version.

Intro:

1:----------------------------------------
2:----------------------------------------
3:--2-2-2-2---5-5-5-5---4-4-4-4/9-9-9-9--- x2
4:--x-x-x-x---x-x-x-x---x-x-x-x/x-x-x-x---
5:--0-0-0-0---3-3-3-3---2-2-2-2/7-7-7-7---
6:----------------------------------------

Verse:

1:----------------------------------
2:----------------------------------
3:--------------9-------------------
4:--7-7-x-7-7---9---3-3-x-3-3---5--- x2
5:--7-7-x-7-7---7---3-3-x-3-3---5---
6:--7-7-x-7-7-------3-3-x-3-3---5---
    
1:------------------------------------
2:------------------------------------
3:---------------9--------------------
4:--7-7-7-7-7-7--9---3-3-3-3-3-3--5--- x3
5:--7-7-7-7-7-7--7---3-3-3-3-3-3--5---
6:--7-7-7-7-7-7------3-3-3-3-3-3--5---
   [-----------]    [-----------][-]
        pm                 pm

1:-------------------------------------
2:-------------------------------------
3:---------------9---------------------
4:--7-7-7-7-7-7--9---4/5/4/5-4/5/4/5---
5:--7-7-7-7-7-7--7---4/5/4/5-4/5/4/5---
6:--7-7-7-7-7-7------4/5/4-5-4/5/4/5---
   [-----------]  
         pm                  

Bridge:

1:--------------------------------
2:--------------------------------
3:------------9-9-----------------
4:--7-7-x-7---9-9---7-7-x-7---10--- x2
5:--7-7-x-7---7-7---7-7-x-7---10---
6:--7-7-x-7---------7-7-x-7---10---

Verse:

1:--------------------------------------
2:--------------------------------------
3:----------------9---------------------
4:--7-7-7-7-7-7---9---3-3-3-3-3-3---5--- x3
5:--7-7-7-7-7-7---7---3-3-3-3-3-3---5---
6:--7-7-7-7-7-7-------3-3-3-3-3-3---5---
   [-----------]     [-----------] [-]
        pm                 pm

2nd Guitar:

1:--------------------------------------------
2:--------------------------------------------
3:--------5-5---------9-9---------5-5---4-4---
4:--7-7---7-7---7-7---7-7---7-7---7-7---7-7---
5:--7-7---------7-7---------7-7---------------
6:--------------------------------------------


1:-------------------------------------
2:-------------------------------------
3:---------------9---------------------
4:--7-7-7-7-7-7--9---4/5/4/5-4/5/4/5---
5:--7-7-7-7-7-7--7---4/5/4/5-4/5/4/5---
6:--7-7-7-7-7-7------4/5/4-5-4/5/4/5---
   [-----------]  
         pm          

2nd Bridge:

1:---------------------------
2:--------12-------12---12---
3:--9-9-9----9-9-9----9------
4:---------------------------
5:---------------------------
6:---------------------------

3rd Bridge:

1:--------
2:--------
3:--------
4:--7-/---
5:--7-/---
6:--7-/---

Chorus:

1:--------------------------------------------------------------------------
2:--------------------------------------------------------------------------
3:--------------------------------------5-5-5-5-5-5-5-5---------------------
4:--7-7-7-7-7-7-7-7---3-3-3-3-3-3-3-3---5-5-5-5-5-5-5-5---5-5-5-5-5-5-5-5--- x2
5:--7-7-7-7-7-7-7-7---3-3-3-3-3-3-3-3---3-3-3-3-3-3-3-3---5-5-5-5-5-5-5-5---
6:--7-7-7-7-7-7-7-7---3-3-3-3-3-3-3-3---------------------5-5-5-5-5-5-5-5---

3rd Bridge:

1:--------------------------------
2:--------------------------------
3:--------------------------------
4:--2-2-x-x-2-0*---2-2-x-x-2-0*---
5:--2-2-x-x-2-0*---2-2-x-x-2-0*---
6:--2-2-x-x-2-0*---2-2-x-x-2-0*---

Verse:

1:--------------------------------------
2:--------------------------------------
3:----------------9---------------------
4:--7-7-7-7-7-7---9---3-3-3-3-3-3---5--- x4
5:--7-7-7-7-7-7---7---3-3-3-3-3-3---5---
6:--7-7-7-7-7-7-------3-3-3-3-3-3---5---
   [-----------]     [-----------] [-]
        pm                 pm

1:--------------------------------------
2:--------------------------------------
3:----------------9---------------------
4:--7-7-7-7-7-7---9---3-3-3-3-3-3---5--- x3
5:--7-7-7-7-7-7---7---3-3-3-3-3-3---5---
6:--7-7-7-7-7-7-------3-3-3-3-3-3---5---
   [-----------]     [-----------] [-]
         pm                pm

  2nd Guitar:

1:--------------------------------------------
2:--------------------------------------------
3:--------5-5---------9-9---------5-5---4-4---
4:--7-7---7-7---7-7---7-7---7-7---7-7---7-7---
5:--7-7---------7-7---------7-7---------------
6:--------------------------------------------

1:-------------------------------------
2:-------------------------------------
3:---------------9---------------------
4:--7-7-7-7-7-7--9---4/5/4/5-4/5/4/5---
5:--7-7-7-7-7-7--7---4/5/4/5-4/5/4/5---
6:--7-7-7-7-7-7------4/5/4-5-4/5/4/5---
   [-----------]  
         pm   

2nd Bridge:

1:---------------------------
2:--------12-------12---12---
3:--9-9-9----9-9-9----9------
4:---------------------------
5:---------------------------
6:---------------------------

3rd Bridge:

1:--------
2:--------
3:--------
4:--7-/---
5:--7-/---
6:--7-/---

Chorus:

1:--------------------------------------------------------------------------
2:--------------------------------------------------------------------------
3:--------------------------------------5-5-5-5-5-5-5-5---------------------
4:--7-7-7-7-7-7-7-7---3-3-3-3-3-3-3-3---5-5-5-5-5-5-5-5---5-5-5-5-5-5-5-5--- x3
5:--7-7-7-7-7-7-7-7---3-3-3-3-3-3-3-3---3-3-3-3-3-3-3-3---5-5-5-5-5-5-5-5---
6:--7-7-7-7-7-7-7-7---3-3-3-3-3-3-3-3---------------------5-5-5-5-5-5-5-5---

1:----------------------------------------------------------
2:----------------------------------------------------------
3:------------------------------5-5--5--5-5-----------------
4:--7-7--7--7-7---3-3--3--3-3---5-5--5--5-5---5-5--5--5-5---
5:--7-7--7--7-7---3-3--3--3-3---3-3--3--3-3---5-5--5--5-5---
6:--7-7--7--7-7---3-3--3--3-3-----------------5-5--5--5-5---
   [-----------] [-----------] [-----------] [-----------]
         pm           pm            pm             pm
   
3rd Bridge:

1:--------------------------------
2:--------------------------------
3:--------------------------------
4:--2-2-x-x-2-0*---2-2-x-x-2-0*---
5:--2-2-x-x-2-0*---2-2-x-x-2-0*---
6:--2-2-x-x-2-0*---2-2-x-x-2-0*---

1:--------------------------------------------
2:--------------------------------------------
3:--------------------------------------------
4:--------------------------------------------
5:--2-2-2-2-------2-2-2-2-------2-2-2-2-------
6:--2-2-2-2-2-3---2-2-2-2-2-0---2-2-2-2-2-3---
   [-------]     [-------]     [-------]
      pm             pm            pm

1:------------------------------
2:------------------------------
3:------------------------------
4:------------------------------ x5
5:--2-2-2-2-2-----2-2-2-2-2-----
6:--2-2-2-2-2-3---2-2-2-2-2-0---
   [---------]   [---------]      
        pm            pm

1:--------------------------------
2:--------------------------------
3:--------------------------------
4:--------------------------------
5:--2-2-2-2-2-----2-2-2-2-2-2-2---
6:--2-2-2-2-2-3---2-2-2-2-2-2-2---
   [---------]
        pm

Chorus:

1:--------------------------------------------------------------------------
2:--------------------------------------------------------------------------
3:--------------------------------------5-5-5-5-5-5-5-5---------------------
4:--7-7-7-7-7-7-7-7---3-3-3-3-3-3-3-3---5-5-5-5-5-5-5-5---5-5-5-5-5-5-5-5--- x6
5:--7-7-7-7-7-7-7-7---3-3-3-3-3-3-3-3---3-3-3-3-3-3-3-3---5-5-5-5-5-5-5-5---
6:--7-7-7-7-7-7-7-7---3-3-3-3-3-3-3-3---------------------5-5-5-5-5-5-5-5---





Comments


Popular Violent Delight tabs & chords
Parental Guidance Bass Tabs
I Wish I Was A Girl Drum Tabs
All You Ever Do Tabs
All You Ever Do 2 Tabs
I Wish I Was A Girl Tabs
Like Them Tabs
Nothing To Loose Tabs
Secret Smile 2 Tabs
Shatterd Tabs
Shattered Tabs


Song lyrics



↑ Back to top | Tablatures and chords are parodies/interpretations of the original songs. You may use it for private study, scholarship, research or language learning purposes only
© 2014 AZChords.com Contact us | Privacy policy | DMCA | Add/correct tabs | Request tabs | Top 50 tabs