» » »

I Wish I Was A Girl Bass tabs (ver.1)

Artists:  A B C D E F G H I J K L M N O P Q R S T U V W X Y Z # 

I Wish I Was A Girl Bass tabs (ver.1)

Violent Delight
Rating:
0/5 (0 votes)

Hard to play? Try these video lessons and learn fast.
                Violent Delight

I Wish I Was a Girl Bass Tab

I’ve made this tab because I was trying to learn this song in my band but there were no 
for bass guitar,
so here is what I play when doing this song and I hope you enjoy it.

 and tell me what you think 

Intro
G|------------------------|
D|------------------------|
A|------------------------|
E|5555-8888-7777-12121212-|

First little fill
G|--------------|Part1 |----------------|Part2
D|--------------|      |----------------|
A|-----7--------|      |-----7----------|
E|55-55—11-11-0-|      |55-55-1111111-0-|

Verse
G|--------------|
D|--------------|
A|-----7--------|
E|55555-11111-0-|

Bridge 1
G|-----------|
D|-----------|
A|----7----3-|
E|55-5-11-1--|

Chorus
G|---------------------------------------|
D|---------------------------------------|
A|------------------33333333-------------|
E|55555555-11111111----------33333333----|

Bridge 2
G|-------------|
D|-------------|
A|----------1--|
E|00-01-00-0-0-|

Bridge 3
G|------------------------------|Part 1 |----------------|Part 2
D|------------------------------|       |----------------|
A|----------1----------1--------|       |--------------1-|
E|00-01-00-0--00001-0000-00001-0-|      |0-00001-0-0000--|

Order:
Intro
Fill Part 1 x2
Fill Part 2
Verse x4
Bridge 1 x2
Verse x4
Chorus x2
Bridge 2
Verse x8
Chorus x3
Bridge 3 Part 1
Bridge 3 Part 2 x6
Chorus x6
            
Hard to play? Try these video lessons and learn fast. | Correct




comments powered by Disqus
↑ Back to top | Tablatures and chords are parodies/interpretations of the original songs. You may use it for private study, scholarship, research or language learning purposes only