» » »

Violent Delight, Alone Tabs (ver.1)

Artists:  A B C D E F G H I J K L M N O P Q R S T U V W X Y Z # 

Alone Tabs (ver.1)

Violent Delight Tabs
 Rating:
4/5 (4 votes)
Alone lessons Tabs too difficult? Try these video lessons and learn fast
1
                Drop D Tuning

 Intro/Verse  (Slight Chorus Effect)
E ------0-------0--------------------------------- 
B ------5-------5-------8---6---5-----------------
G ------------------------------------------------           
D ----------7-------7-----------------7-----------
A ------------------------------------------------
D ------------------------------------------------

Intro Part 2/Post Chorus (Distortion) 
E ----------------------------------------------------------------------
B ----------------------------------------------------------------------
G --------------8--7-----------8--7--8---------------8--7-----------7*--  
D -----0--0-----x--x-----------x--x--x------0--0-----x--x-----------7*--
A -----0--0-----6--5-----------6--5--6------0--0-----6--5---------------
D -----0--0---------------0-----------------0--0---------------0--------
   
(*=Harmonics)

Pre Chorus (Distortion)
E --------0--------0--------0----------------------- 
B ---------0--------0--------0----------------------
G ----------0--------0--------0------7/9-9-9--------       X2 (Second time round 
D ------7~------2~------5~------0~---x/x-x-x--------        don’t play the Octaves)
A ------7~------2~------5~------0~---5/7-7-7--------
D ------7~------2~------5~------0~------------------

Chorus  (Distortion)
E --------------------------------------------------- 
B ---------------------------------------------------
G ---------------------------------------------------           X4
D ---------3~-------------------7~-------------------
A ---------3~-------------------7~-------------------
D ---------3~-------------------7~-------------------

If you listen to the song the rhythm is really easy to get!

SONG STRUCTURE

Intro/Verse  X4
Intro Part 2/ Post Chorus  X2
Intro/Verse  X8
Pre Chorus  X2
Chorus X4
Intro Part 2/ Post Chorus  X2
Intro/Verse  X8
Chorus X8
Intro Part 2/ Post Chorus  X2
            
Submit corrections

comments powered by Disqus
↑ Back to top | Violent Delight Tabs for Alone. Lyrics for acoustic guitar and electric guitar. 1 Tablatures and chords are parodies/interpretations of the original songs. You may use it for private study, scholarship, research or language learning purposes only