» » »

Violent Delight, All You Ever Do Tabs (ver.5)

Artists:  A B C D E F G H I J K L M N O P Q R S T U V W X Y Z # 

All You Ever Do Tabs (ver.5)

Violent Delight Tabs
 Rating:
4/5 (4 votes)
All You Ever Do  lessons Tabs too difficult? Try these video lessons and learn fast
                (2)
(Sion)
Ichanged this abit cos the chorus was wrong and the interlude,i still cant work out guitar 2 

INTRO
|---------------------------------
|---------------------------------
|---------------------------------
|--x-x-5--x-x-5--8-8-------------
|--x-x-3--x-x-3--6-6--6--6-6-6--
|---------------------4--4-4-4---
CONTINUED
|-----------------------------------
|-----------------------------------
|-----------------------------------
|--x-x-5--x-x-5--8-8--10-10-10-10--  (things at end are  10 )
|--x-x-3--x-x-3--6-6--8--8-8-8--8--                                8
|-----------------------------------
CONTINUED
|------------------------------------------------------------------
|------------------------------------------------------------------
|-----------------------------------------------------------------
|--x-x-5--x-x-5--8-8-----------------------------------------
|--x-x-3--x-x-3--6-6--6--6-6-6---1-1-1-1--4-4-4-4---
|---------------------4--4-4-4---1-1-1-1--4-4-4-4---

VERSE
|--------------------             } 
|--------------------             |  
|--------------------             |     
|--5-5----8-8--------    x 3    |
|--3-3----6-6--6-6---             | 
|--------------4-4---              |      Repeat all x2
CONTINUED                                 |
|----------------------          | 
|----------------------          |
|----------------------          |
|----------------------          |
|--1-1-1-1--4-4-4-4---          | 
|--1-1-1-1--4-4-4-4---          }

CHORUS
|--------------------------------------------------------------------------
|--------------------------------------------------------------------------
|--------------------------------------------------------------------------
|--8-8-8-8-8-8-8-8--10-10-10-10-10---------------------------------------
|--6-6-6-6-6-6-6-6--8-8-8-8-8-8-8-8--6-6-6-6-6-6-6-6--5-5-5-5--6-6-6-6--
|-------------------------------------4-4-4-4-4-4-4-4--3-3-3-3--4-4-4-4--
P.T.O

---------------------------------Bottom of Page 1-------------------------------------
CONTINUED

|---------------------------------------------------------------------------
|---------------------------------------------------------------------------
|---------------------------------------------------------------------------
|--8-8-8-8-8-8-8-8--10-10-10-10-10----------------------------------------
|--6-6-6-6-6-6-6-6--8-8-8-8-8-8-8-8--6-6-6-6--5-5-5-5--3-3-3-3--5-5-5-5--
|-------------------------------------4-4-4-4--3-3-3-3--1-1-1-1--3-3-3-3--  x2

( Repeat VERSE)

(Repeat CHORUS but without ...
6-6-6-6--5-5-5-5--3-3-3-3--5-5-5-5-
4-4-4-4--3-3-3-3--1-1-1-1--3-3-3-3-  at the very end instead of that do this)

|------------------------------------
|------------------------------------
|------------------------------------
|------------------------------------
|--6-6-6-6-6-6-6-6-6-6-6-6-6-6-6-6--
|--4-4-4-4-4-4-4-4-4-4-4-4-4-4-4-4--

INTERLUDE
|---------------------------------------------
|----------------------------------------------
|----------------------------------------------
|----------------------------------------------
|---------------------------------------------- x 3
|--1-x-x-x-x-x-x---------x-----------x--------
|--1-x-x-x-x-x-x--1-p-0--x--4-p-0--x--2-h-3--
CONTINUED
|--------------------------------------
|--------------------------------------
|--------------------------------------
|--------------------------------------
|--1-x-x-x-x-x-x-x-x-x-x-x-x-x-x-x-x--
|--1-x-x-x-x-x-x-x-x-x-x-x-x-x-x-x-x--

( Repeat first bit of INTERLUDE then... )

|--------------------
|--------------------
|--------------------
|--------------------
|--1-x-x-x-x-x-x-1--
|--1-x-x-x-x-x-x-1--

(Repeat all of VERSE only 1 time)
(Repeat all of CHORUS only 1 time)

P.T.O


------------------------------------Bottom of page 2-----------------------------------


LAST BIT
|--------------------------------------
|--------------------------------------
|--------------------------------------
|--5-5-5-5-5-5-5-5--8-8-8-8-----------
|--3-3-3-3-3-3-3-3--6-6-6-6--6-6-6-6--
|-----------------------------4-4-4-4--
CONTINUED
|----------------------------------------
|----------------------------------------
|----------------------------------------
|----------------------------------------
|--5-5-5-5-5-5-5-5--8-8-8-8--10-10-10--
|--3-3-3-3-3-3-3-3--6-6-6-6--8-8-8-8---
|---------------------------------------
CONTINUED
|---------------------------------------------------------
|---------------------------------------------------------
|---------------------------------------------------------
|---------------------------------------------------------
|--5-5-5-5-5-5-5-5--8-8-8-8------------------------------
|--3-3-3-3-3-3-3-3--6-6-6-6--6-6-6-6--1-1-1-1--4-4-4-4--
|-----------------------------4-4-4-4--1-1-1-1--4-4-4-4--

END ON
|--------
|--------
|--------
|--5-5---
|--3-3---
|--------

BUT PLEASE RATE THIS, WHOEVERS LOOKING AT IT, LOG ON AND RATE IT YOU BUCH OF LAZY DICKS! You 
didnt do my last 1 ...
            
Submit corrections

comments powered by Disqus
↑ Back to top | Violent Delight Tabs for All You Ever Do. Lyrics for acoustic guitar and electric guitar. Tablatures and chords are parodies/interpretations of the original songs. You may use it for private study, scholarship, research or language learning purposes only