>
 >
Till Fjalls

Till Fjalls Guitar Tabs

Vintersorg - Till Fjalls chords, tabs, tablatures, lyrics

Guitar lessons | Add/correct | Request | Top 50 tabs Artists:  A B C D E F G H I J K L M N O P Q R S T U V W X Y Z 0-9

Till Fjalls Guitar Tabs – Vintersorg

CD, Sheet music, Poster

Do you like Till Fjalls? Share with your friends now
Tabs
Standard E Tuning

Vintersorg - Till Fjalls

; = Sweep

Rhy. Fig. 1
|-----------------------------------------------------------------------------
|-----------------------------------------------------------------------------
|--3-3-3-3-3-3-3-3-3-3-3-3--2-2--2-2--0-0-0-0-0-0-0-0-0-0-0-0-0-0-0-0--2-2----
|--5-5-5-5-5-5-5-5-5-5-5-5--3-3--3-3--1-1-1-1-1-1-1-1-1-1-1-1-1-1-1-1--3-3----
|-----------------------------------------------------------------------------
|-----------------------------------------------------------------------------
                                                                              
---------------------------------------------------------------------|
---------------------------------------------------------------------|
--2-2--0-0--0-0---------------------0-0-0-0-0-0-0-0------------------|
--3-3--1-1--1-1-3-3-3-3-3-3-3-3-3-3-1-1-1-1-1-1-1-1-3-3-3-3-3-3-3-3--|
----------------5-5-5-5-5-5-5-5-5-5-----------------5-5-5-5-5-5-5-5--|
---------------------------------------------------------------------|
                                                      End rhy. Fig. 1
Rhy. Fig. 2
Dist. Guitar I - Rhytm
|-----------------------------------------------------------------------------
|-----------------------------------------------------------------------------
|----------------------------------------------------------------3---3---3----
|-------------------------------------------------------------3--3---3---3----
|-1-1--1-1--1-1--1-1--1-1--1-1--1-1--1-1--1--1-1--1-1-1--1-1--3--1---1---1----
|-3-3--3-3--3-3--3-3--3-3--3-3--3-3--3-3--3--3-3--3-3-3--3-3--1---------------
  . .  . .  . .  . .  . .  . .  . .  . .     . .  . . .  . .                  

------------------------|
------------------------|
--3--3------------------|
--3--3--2---2---3---3---|
--1--1--3---3---3---3---|
------------------------|
x2

Riff A
Dist. Guitar II - Lead
Two times with gtr I playing rhy. fig. 2 two times
|-----------------------------------------------------------------------------
|-----------------------------------------------------------------------------
|-----------------------------------------------------------------------------
|----------------------1----3---------1--3--1-----------------3-3-------------
|------------1-----------------------------------3----------------1---1---1---
|-3---------------------------------------------------------------------------
                                                                              

------------------------|
------------------------|
------------------------|
----5-----5--------3----|
------------------------|
------------------------|
                                                                              
Chorus
Rhy. Fig. 3
|-----------------------------------------------------------------------------
|-----------------------------------------------------------------------------
|-----------------------------------------------------------------------------
|-5---------5--------5---------5--------3--------3--------5--------3----------
|-3h5-------5--------3h5-------5--------3--------3--------5--------3----------
|-3---3--3--3--3--3--3---3--3--3--3--3--1--1--1--1--1--1--3--3--3--1--1--1----
      .  .     .  .      .  .                                          x2     
Fill 1
|--------------------------------------------------|----------|--------------|
|--------------------------------------------------|----------|--------------|
|--------------------------------------------------|----------|--------------|
|-5--5------5--5--5------5--5--3-----3-----5----3--|--5-------|-(5)----------|
|-5--5------5--5--5------5--5--3-----3-----5----3--|--5-------|-(5)----------|
|-3--3------3--3--3------3--3--1-----1-----3----1--|--3-------|-(3)----------|      
                                                 x2           End Fill 1
|--------------|
|Half-time feel|
|--------------|

Acoustic Gtr I (recommended: fingertip style, steel string-guitar)
Rhy. Fig. 4
Repeated a lot, first time with fill 1
----------3---5--6-----6--5-------------3--5--6-----6--5--6--8------------3---
-------3------3--3-----3--3----------3-----3--3-----3--3--3--6---------3------
----0---------0--0-----0--0-------0--------0--0-----0--0--0--0------0---------
------------------------------------------------------------------------------
------------------------------------------------------------------------------
------------------------------------------------------------------------------
                                                                              

--5--6-----6--5----6--5---------3--5--6----3--1--3--5---|
--3--3-----3--3----3--3------3-----3--3----3--3--3--3---|
--0--0-----0--0----0--0---0--------0--0----0--0--0--0---|
--------------------------------------------------------|
--------------------------------------------------------|
--------------------------------------------------------|
  End of rhy. Fig. 4                          
                                                    
Acoustic Gtr II (recommended: stubby dunlop 1.0 pic, steel string guitar)
Guitar Solo
Played with Rhy. Fig. 4
-10--8--6--------------------6--6--8------------------------------------------
--8--------10--8------8----------------10-11-8------8-------------------------
--7----------------------10----------------------------10--------7--8--7h8p7--
------------------------------------------------------------------------------
------------------------------------------------------------------------------
------------------------------------------------------------------------------
                                                                              

----------6--5--6--5----6--8--8/10--10--8--10--10-11-8-10---------------5--6--
----------6--------------------------------------------------------8----------
------7---5------------------------------------------------------7---7--------
--10-----------------------------------------------------------5--------------
------------------------------------------------------------------------------
------------------------------------------------------------------------------
                                                                              

----5--6-------10---------------------------------8--10---8-------------5--6--
-----------------------------------------10-11---------------------8----------
---------------------10--10/12-12----12--------------------------7---7--------
---------------------------------------------------------------5--------------
------------------------------------------------------------------------------
------------------------------------------------------------------------------
                                                                              

-------------------10------10-11-8-10----11--10-------------------------------
--8-----8--10--11------11------------------------13-11-13-11---10-------------
----7---------------------------------------------------------------12-11-12--
------------------------------------------------------------------------------
------------------------------------------------------------------------------
------------------------------------------------------------------------------





Comments


Popular Vintersorg tabs & chords
Enigmatic Spirit Chords
Enigmatic Spirit Tabs
Isjungfrun Tabs
Rundans Tabs
Enigmatic Spirit Ukulele


Song lyrics



↑ Back to top | Tablatures and chords are parodies/interpretations of the original songs. You may use it for private study, scholarship, research or language learning purposes only
© 2014 AZChords.com Contact us | Privacy policy | DMCA | Add/correct tabs | Request tabs | Top 50 tabs