» » »

Enigmatic Spirit Chords (ver.1)

Artists:  A B C D E F G H I J K L M N O P Q R S T U V W X Y Z # 

Enigmatic Spirit Chords (ver.1)

Vintersorg
Rating:
0/5 (0 votes)

Hard to play? Try these video lessons and learn fast.
                
  
Band:  Vintersorg

Copyright (c) Vintersorg (2000)


Tunning E A D G B E (normal)

---------------------------------------
 Great song, easy to play
 Sorry for the Solo part - Next time
---------------------------------------
INTRO:

   Am         F        Am        G      F
|-------0-|-------1-|-------0-|--------------|
|-------1-|-----1-1-|-------1-|-----3------1-|
|---0---2-|---2---2-|---0---2-|---4------2---|
|-2---2-2-|-2-----3-|-2---2-2-|-5------3-----|  X 2
|-------0-|---------|-------0-|--------------|
|---------|---------|---------|--------------|

  Am      Am          Dm         G
|-------|-------|---------|---------|
|-1-0-1-|-1-0-1-|-1-0---3-|-1-0-----|
|-2-2-2-|-2-2-2-|-----2---|-----2-0-|
|-2-----|-2-----|-------0-|-------0-|  X 2
|-----0-|-----0-|---------|---------|
|-------|-------|---------|---------|


Am   F Am   F G   F E


  Am      Am          Dm         G
|-------|-------|---------|---------|
|-----0-|-----0-|---------|---------|
|-2-----|-2-----|-------0-|-------0-|  X 2
|-2-2-2-|-2-2-2-|-----2---|-----2-0-|
|-1-0-1-|-1-0-1-|-1-0---3-|-1-0-----|
|-------|-------|---------|---------|

Am   F Am   F G   F E

Chorus:
F G Am F  G     Am   G  Am

|-------|
|-----0-|
|-2-----|  X 12   (Solo is playing during this)
|---2---|
|-------|
|-------|

Am   F Am   F G   F E

Chorus X 2
            
Hard to play? Try these video lessons and learn fast. | Correct




comments powered by Disqus
↑ Back to top | Tablatures and chords are parodies/interpretations of the original songs. You may use it for private study, scholarship, research or language learning purposes only