» » »

Times Of Refreshing Tabs (ver.1)

Artists:  A B C D E F G H I J K L M N O P Q R S T U V W X Y Z # 

Times Of Refreshing Tabs (ver.1)

Vineyard
Rating:
0/5 (0 votes)

Hard to play? Try these video lessons and learn fast.
                (Intro)
key of E

    e           a          e          b
e[--------------------------------------------------------]
b[--------------------------------------------------------]
g[-------------------6------------------------------------]
d[--------6-----7-7h9--9-7-------6------------------------]
a[--7-7h9---9-7------------7-7h9---9-7--------------------]
e[-------------------------------------7------------------]

    e           a           e     b
e[--------------------------------------------------------]
b[--------------------------------------------------------]
g[--------------------6-----------------------------------]
d[--------6-----7-7h9---9-7---7-7h9-----------------------]
a[--7-7h9---9-7-------------7-----------------------------]
e[--------------------------------------------------------]
            
Hard to play? Try these video lessons and learn fast. | Correct




comments powered by Disqus
↑ Back to top | Tablatures and chords are parodies/interpretations of the original songs. You may use it for private study, scholarship, research or language learning purposes only