>
 >
Surrender

Surrender Guitar Tabs

Vineyard - Surrender chords, tabs, tablatures, lyrics

Guitar lessons | Add/correct | Request | Top 50 tabs Artists:  A B C D E F G H I J K L M N O P Q R S T U V W X Y Z 0-9

Surrender Guitar Tabs – Vineyard

CD, Sheet music, Poster

Do you like Surrender? Share with your friends now
ChordsChords v2TabsUkulele
I arranged this song to play at small group with just the acoustic guitar.
I used a lot of open chords to make it sound full.

Chords used:

  E   B  A  C#m  C#m* D#m* E*  A*
e-0---0--0---0----0----0---0---0----------|
B-0---0--0---0----0----0---0---0----------|
G-1---4--2---6----6----8---9---9----------|
D-2---4--2---6----x----x---9---9----------|
A-2---2--0---4----4----6---7---0----------|
E-0---x--x---x----x----x---x---x----------|

to mute the low E string, use either your thumb or index finger, whichever
is more comfortable. I use one or the other depending on the chord. To use
the index finger, fret the A string with your index in such a way that
the flesh o the finger tip mutes the E string.


E                       B                        A
  I'm giving you my heart, and all that is within
                C#m                B      E
I lay it all down for the sake of you my King
E                       B                       A
  I'm giving you my dreams, I'm laying down my rights
                  C#m                 B        E     (A)
I'm giving up my pride for the promise of new life

     C#m* - D#m*    E*    A*      E*  C#m*    B     (A)
And   I         surrender all to you, all to you
     C#m* - D#m*    E*    A*      E*  C#m*    B
And   I         surrender all to you, all to you

I'm singing You this song, I'm waiting at the cross
And all the world holds dear, I count it all as loss
For the sake of knowing You for the glory of Your name
To know the lasting joy, even sharing in Your pain


Also, here's a fingerstyle version of the Chorus for a quieter section:

      C#m*    D#m*    E*      A*      E*      C#m*    B
e-------------------------------------------------------------0-------|
B---------5-------7-------9---------------9-------5-------4-----4---4-|
G-------6---6---8---8---9---9-----2-----9---9---6---6---4---4-----4---|
D-------------------------------2---2---------------------------------|
A-----4-------6-------7-------0-------7-------4-------2---------------|
E---------------------------------------------------------------------|


Finally, here's a pattern you can use as an intro or instrumental break:

   1   &   2    &   3   &   4   &   |1   &   2   &   3   &   4   &
e--0-------0----0---0---0---0---0---|0---0---0------------------------|
B--0-------0----0---0---0---0---0---|0---0---0------------------------|
G--9-------9/11-11--11--9---9---8---|8\6-6---6------------------------|
D--x-------x----x---x---x---x---x---|x---x---x------------------------|
A--7-------7/9--9---9---7---7---6---|6\4-4---4------------------------|
E-----------------------------------|---------------------------------|





Comments


Popular Vineyard tabs & chords
Change My Heart, Oh God Chords
More Love, More Power 1 Chords
Psalm 19 Chords
You Are Still Holy Chords
Your Beloved Tabs
All From You Ukulele
Draw Me Close To You Ukulele
Holy And Anointed One Ukulele
I Love Your Presence Ukulele
You Are God Ukulele


Song lyrics



↑ Back to top | Tablatures and chords are parodies/interpretations of the original songs. You may use it for private study, scholarship, research or language learning purposes only
© 2014 AZChords.com Contact us | Privacy policy | DMCA | Add/correct tabs | Request tabs | Top 50 tabs