» » »

Vindictives, Spring Valley Shopping Mall Tabs (ver.1)

Artists:  A B C D E F G H I J K L M N O P Q R S T U V W X Y Z # 

Spring Valley Shopping Mall Tabs (ver.1)

Vindictives Tabs
Rating:
0/5 (0 votes)
Spring Valley Shopping Mall lessons Tabs too difficult? Try these video lessons and learn fast
                i took this from a different web site and fix the solo and the chorus so enjoy and if 


Repeat this 2x (First Verse)
e|---------------------------------------------------------------------------|
B|---------------------------------------------------------------------------|
G|6-6-6-6-----------6-6-6-6-----------4-4-4-4-----------2-2-2-2--------------|
D|6-6-6-6--6-6-6-6--6-6-6-6--6-6-6-6--4-4-4-4--4-4-4-4--2-2-2-2--6-6-6-6-----|
A|4-4-4-4--6-6-6-6--4-4-4-4--6-6-6-6--2-2-2-2--4-4-4-4--0-0-0-0--6-6-6-6-----|
E|---------4-4-4-4-----------4-4-4-4-----------2-2-2-2-----------4-4-4-4-----|

Repeat this 3x Last part of Chorus
e|----------------------------------|----------------------------------------|
B|----------------------------------|----------------------------------------|
G|------------------6-6-6-6-6-6-6-6-|----------------------------------------|
D|4-4-4-4--7-7-7-7--6-6-6-6-6-6-6-6-|-4-4-4-4--7-7-7-7--6-6-6-6-6-6-6-6------|
A|4-4-4-4--7-7-7-7--4-4-4-4-4-4-4-4-|-4-4-4-4--7-7-7-7--6-6-6-6-6-6-6-6------|
E|2-2-2-2--5-5-5-5------------------|-2-2-2-2--5-5-5-5--4-4-4-4-4-4-4-4------|

Repeat first verse 2x
e|---------------------------------------------------------------------------|
B|---------------------------------------------------------------------------|
G|--------------- Repeat first Verse 2x -------------------------------------|
D|---------------------------------------------------------------------------|
A|---------------------------------------------------------------------------|
E|---------------------------------------------------------------------------|

Repeat Chorus
e|---------------------------------------------------------------------------|
B|---------------------------------------------------------------------------|
G|---------------------------------------------------------------------------|
D|----------------Repeat Chorus!! -------------------------------------------|
A|---------------------------------------------------------------------------|
E|---------------------------------------------------------------------------|
Solo (Repeat 2x)
e|---------------------------------------------------------------------------|
B|--------------------------------------------9------------------------------|
G|--6-5-6-5-6-5-6-5-6-5---6-5-6-5-6-5-6-5-6-5---4-3-4-3-4-3-4-3-4-3----------|
D|----------------------6-------------------------------------------4--------|
A|---------------------------------------------------------------------------|
E|---------------------------------------------------------------------------|

e|---------------------------------------------------------------------------|
B|---------------------------------------------------------------------------|
G|--2-2-2-2-1-8-6-5----------------------------------------------------------|
D|---------------------------------------------------------------------------|
A|---------------------------------------------------------------------------|
E|---------------------------------------------------------------------------|

(The "Heys" Part)
e|---------------------------------------------------------------------------|
B|---------------------------------------------------------------------------|
G|-6-6-6-6------------6-6-6-6------------4-4-4-4------------4-4-4-4----------|
D|-6-6-6-6--4-4--6-6--6-6-6-6--4-4--6-6--4-4-4-4--2-2--4-4--4-4-4-4----------|
A|-4-4-4-4--4-4--6-6--4-4-4-4--4-4--6-6--2-2-2-2--2-2--4-4--2-2-2-2----------|
E|----------2-2--4-4-----------2-2--4-4-----------0-0--2-2-------------------|

e|-----------------------------------------------------------------------------|
B|-----------------------------------------------------------------------------|
G|-----------------------------------------------------------------------------|
D|-5-5-6-6---------------------------------------------------------------------|
A|-5-5-6-6---------------------------------------------------------------------|
E|-3-3-4-4---------------------------------------------------------------------|

Repeat Chorus
e|---------------------------------------------------------------------------|
B|---------------------------------------------------------------------------|
G|---------------------------------------------------------------------------|
D|----------------Repeat Chorus!! -------------------------------------------|
A|---------------------------------------------------------------------------|
E|---------------------------------------------------------------------------|

Outro (Repeat appropriate amount of times)
e|---------------------------------------------------------------------------|
B|---------------------------------------------------------------------------|
G|--6-6-6-6----------4-5-6---------------------------------------------------|
D|--6-6-6-6--6-----6-4-5-6---------------------------------------------------|
A|--4-4-4-4--6-----6-2-3-4---------------------------------------------------|
E|-----------4-----4---------------------------------------------------------|
            

comments powered by Disqus
↑ Back to top | Vindictives Tabs for Spring Valley Shopping Mall. Lyrics for acoustic guitar and electric guitar. Tablatures and chords are parodies/interpretations of the original songs. You may use it for private study, scholarship, research or language learning purposes only