» » »

Vince Guaraldi, Linus And Lucy Bass tabs (ver.1)

Artists:  A B C D E F G H I J K L M N O P Q R S T U V W X Y Z # 

Linus And Lucy Bass tabs (ver.1)

Vince Guaraldi Tabs
 Rating:
4.3/5 (6 votes)
Linus And Lucy lessons Tabs too difficult? Try these video lessons and learn fast
                LINUS AND LUCY

(Dont stretch version)

--RHYTHM--

G+-----0-----0------|----------------|-----0-----0-------|-----------------+
D|---0-----0--------|---0-2---0-2----|---0-----0---------|---0-2---0-2-----+
A|------------------|----------------|-------------------|-----------------+
E+-3-----3--------3-|-3-----3------3-|-3-----3---------3-|-3-----3-----3---+
--'              `---'            `---'               `---'           `----+

I modified the 5's and 7's up a string so that you don't have to stretch if you have 
hands (I have huge hands, and it's still hard for me). I don't have the time to finish the 
but that way you can see what it was like before the changes.

--RIFF--

+-121416--161412-14|14-----12-----12|-121416--16--------|------------------+
|-----5-----5------|----------------|-----5-----5-------|------------------+
|---5-----5--------|---5-7---5-7----|---5-----5---------|---5-7---5-7------+
+-3-----3--------3-|-3-----3------3-|-3-----3---------3-|-3-----3-----3----+
--'              `---'            `---'               `---'           `----+

+-121416--161412-14|14-----12-----12|-12----1414--------|------------------+
|-----5-----5------|----------------|-----8-----8-------|------------------+
|---5-----5--------|---5-7---5-7----|---8-----8---------|---8-10--8-10-----+
+-3-----3--------3-|-3-----3------6-|-6-----6---------6-|-6-----6-----3----+
--'              `---'            `---'               `---'           `----+

+-12----1414-------|----------------|-5---5---5---7-------+
|-----5-----5------|----------------|-5---5---5---7-------+
|---5-----5--------|---5-7---5-7----|-3---3---3---5-------+
+-3-----3--------3-|-3-----3------3-|---------------------+
--'              `---'              Slap:

+-12----------12----------12------------|-5---5---5---7------------+
|-12/14-14-14-12/14-14-14-12/14-14-14---|-5---5---5---7------------+
|---------------------------------------|-3---3---3---5------------+
+-------------------------------------3-|--------------------------+

+-12----------12----------12--------------+
|-12/14-14-14-12/14-14-14-12/14-14-14-----+
|-----------------------------------------+
+-------------------------------------3---+
                                      `---
            
Submit corrections

comments powered by Disqus
↑ Back to top | Vince Guaraldi Bass for Linus And Lucy. Lyrics for acoustic guitar and electric guitar. Tablatures and chords are parodies/interpretations of the original songs. You may use it for private study, scholarship, research or language learning purposes only