» » »

Ville Pusa, Hjarta Mot Hjarta Chords (ver.1)

Artists:  A B C D E F G H I J K L M N O P Q R S T U V W X Y Z # 

Hjarta Mot Hjarta Chords (ver.1)

Ville Pusa Tabs
 Rating:
4/5 (4 votes)
Hjarta Mot Hjarta lessons Tabs too difficult? Try these video lessons and learn fast
1
                -------------------------------------------------------------------------
HJÄRTA MOT HJÄRTA – Ville Pusa
-------------------------------------------------------------------------

INTRO
A5
 
VERSE1
   Am       G/B      C        F         Am       G/B      C        F
e|----------------------------------------------------------------------|
B|-------1--------3--------1------------------1--------3--------1-------|
G|-----2--------0--------0----------2-------2--------0--------0---------|
D|---2--------0--------2----------3-------2--------0--------2-----------|
A|-0--------2--------3----------3-------0--------2--------3----------3--|
E|----------------------------1------------------------------------1----|
        Fmaj7  G  Fmaj7 Fmaj7
e|-------0-----3---0-----0-----|
B|-------1-----3---1-----1-----|
G|---2---2-----0---2-----2-----|
D|-3-----3-----0---3-----3-----|
A|-------3-----2---3-----3-----|
E|-------1-----3---1-----1-----|

VERSE1 [with lyrics]
Am       G/B            C                    F
   Utan karta utan kompass, över berg genom skog
Am       G/B            C       F
   Utan nycklar öppnade du alla lås
    Fmaj7                        G
Jag vänder mig om och ser att du ler
Fmaj7                      Fmaj7
 Du smakar gott jag måst få mer

CHORUS
Am              Dm
   Hjärta mot hjärta
G             Bb            Am
   Dansar vi tätt intill varann
           Dm                     Fmaj7
Läppar mot läppar, som går hand i hand

VERSE2
Am              G/B         C             F
    En båt som seglar utan rigg, in i en hamn
Am              G/B             C            F
    Armar som sökte fann till sl*t kärlekens famn
   Fmaj7                        G
Du vänder dig om och jag börjar le
   Fmaj7                     Fmaj7
Du smakar så gott jag måst ha mer

CHORUS
Am              Dm
   Hjärta mot hjärta
G             Bb            Am
   Dansar vi tätt intill varann
           Dm                     Fmaj7
Läppar mot läppar, som går hand i hand
Am              Dm
   Hjärta mot hjärta
G                 Bb          Am
   Som bultar och känner likadant
         Dm             Fmaj7
Ögon som söker berättar allt

BRIDGE
G                Dm7
   Jag lovar att älska
G                  Dm7
   Att alltid vara din bästa vän
G                    Dm7
   När du känner dig ensam
          Bb
Finns jag där för dig

CHORUS
Am              Dm
   Hjärta mot hjärta
G             Bb            Am
   Dansar vi tätt intill varann
           Dm                     Fmaj7
Läppar mot läppar, som går hand i hand
Am              Dm
   Hjärta mot hjärta
G                 Bb          Am
   Som bultar och känner likadant
         Dm             Fmaj7
Ögon som söker berättar allt

OUTRO/SOLO
Am  G/B  C  Bb
Am  G  Fmaj7

=========================================================================
Comment, rate, appreciate!
            
Submit corrections

comments powered by Disqus
↑ Back to top | Ville Pusa Chords for Hjarta Mot Hjarta. Lyrics for acoustic guitar and electric guitar. 1 Tablatures and chords are parodies/interpretations of the original songs. You may use it for private study, scholarship, research or language learning purposes only