» » »

Ymca Bass tabs (ver.3)

Artists:  A B C D E F G H I J K L M N O P Q R S T U V W X Y Z # 

Ymca Bass tabs (ver.3)

Village People
Rating:
0/5 (0 votes)

Tabs too difficult? Try these video lessons and learn fast.
                


INTRO
G|-----------------------|
D|-----------------------|
A|-----4------4--------4-|
E|-----------------------|


VERSE
x2
G|--------------------------------------------------------------------------------|
D|---------------------------------------------------7----8-----------------------|
A|----------------------------6--6--6--6--6--6------------------------------------|
E|--2--2--2--2--2--2--2--2/-----------------------5----6----7--7--7--7--7--7--7--7|

G|-----------------------------------------|
D|-----------------------------------------|
A|-----8------6------4---------------------|
E|--------------------------7-----6------4-|


BRIDGE
G|-----------------------|
D|-----------------------|
A|-----4---4---4---4---4\|
E|-----------------------|


CHORUS
G|-------------------------------6-----7----88--8--88---8---88---------|
D|-----44--4--44--4--44------------------------------------------7--8--|
A|-----------------------------4----5-----6---6--6----6---6------------|
E|--2----2---2---2---------------------------------------------5--6----|

G|--------------------------------------------------------------------------|
D|----99--9---99---9---99---9---99---9----10-10--10--10-10--10--10-10---2--3|
A|--------------------------------------------------------------------------|
E|--7---7---7---7----7----7---7-----7----9------9---9------9---9------0--1--|

G|-------------------------------6-----7----88--8--88-8--88---------|
D|-----44--4--44--4--44---------------------------------------7--8--|
A|----------------------------4----5-----6---6--6----6--6-----------|
E|--2----2---2---2------------------------------------------5--6----|

G|----------------------------------------------------------------------------|
D|-99--9---99---9---99--2--3----10-10--10--10-10--10--10-10---10--10-10-------|
A|----------------------------------------------------------------------------|
E|7--7---7---7----7---0--1----9------9----9------9---9------9----9---------10\|


| /  slide up
| \  slide down
| h  hammer-on 
| p  pull-off 
| ~  vibrato 
| +  harmonic 
| x  Mute note
            
Tabs too difficult? Try these video lessons and learn fast.


comments powered by Disqus
↑ Back to top | Tablatures and chords are parodies/interpretations of the original songs. You may use it for private study, scholarship, research or language learning purposes only