» » »

Wizards Sleeve Tabs (ver.1)

Artists:  A B C D E F G H I J K L M N O P Q R S T U V W X Y Z # 

Wizards Sleeve Tabs (ver.1)

Viking Skull
Rating:
5/5 (1 vote)

Hard to play? Try these video lessons and learn fast.
                

Tuning - tabbed in D standard (DGCFAd) but i think it's played in drop d originally. 
good still, and if you want to play in drop d, just move the notes down two frets. no 
about the tuning, because i know what it's played in so know  b**ching unless your retarded

Key
Pm...- Palm mute
  /  - Slide

Intro
'''''
gtr 1 (relativly distant)
d-------------------------------------------------|
A-------------------------------------------------|
F--7--7-7-7-7-7--7-7-7-7-7--7-7-7-7-7--7-7-10-10--|
C--7--7-7-7-7-7--7-7-7-7-7--7-7-7-7-7--7-7-10-10--|
G--5--5-5-5-5-5--5-5-5-5-5--5-5-5-5-5--5-5-8--8---|
D-------------------------------------------------|

gtr 2

(Feedback and distortion into a pick scr*pe)

Main riff
'''''''''
both guitars
d-------------------------------------------------|
A-------------------------------------------------|
F--7--7-7-7-7-7--7-7-7-7-7--7-7-7-7-7--7-7-10-10--|
C--7--7-7-7-7-7--7-7-7-7-7--7-7-7-7-7--7-7-10-10--|
G--5--5-5-5-5-5--5-5-5-5-5--5-5-5-5-5--5-5-8--8---|
D-------------------------------------------------|

Guitar 2 lead played 8 times
''''''''''''''''''''''''''''
d---------------------------|-------------------------|
Ao-------------------------o|-------------------------|
F--------7---5--------------|--------7---5------7-7---|
C----5-7-------7-5----------|----5-7-------7-5--7-7---|
Go-5---------------5-5-5---o|--5----------------5-5---|
D---------------------------|-------------------------|
                              on last bar, this is played

Main riff
'''''''''
both guitars
d-------------------------------------------------|
A-------------------------------------------------|
F--7--7-7-7-7-7--7-7-7-7-7--7-7-7-7-7--7-7-10-10--|
C--7--7-7-7-7-7--7-7-7-7-7--7-7-7-7-7--7-7-10-10--|
G--5--5-5-5-5-5--5-5-5-5-5--5-5-5-5-5--5-5-8--8---|
D-------------------------------------------------|

Guitar 2 lead
'''''''''''''
d---------------------------|-------------------------|
Ao-------------------------o|-------------------------|
F--------7---5--------------|--------7---5------7-7---|
C----5-7-------7-5----------|----5-7-------7-5--7-7---|
Go-5---------------5-5-5---o|--5----------------5-5---|
D---------------------------|-------------------------|
Chorus
''''''
Both guitars 4 times
d-------------------------------------------------|
A-------------------------------------------------|
F--7--7-7-7-7-7--7-7-7-7--3--3-3-3-3--5--5-5-5-5--|
C--7--7-7-7-7-7--7-7-7-7--3--3-3-3-3--5--5-5-5-5--|
G--5--5-5-5-5-5--5-5-5-5--1--1-1-1-1--3--3-3-3-3--|
D-------------------------------------------------|

d------------------------------------------------------|
A------------------------------------------------------|
F--7--7-7-7-7-7--7-7-7-7--10-10101010-12--12-12-12-12--|
C--7--7-7-7-7-7--7-7-7-7--10-10101010-12--12-12-12-12--|
G--5--5-5-5-5-5--5-5-5-5--8--8-8-8-8--10--10-10-10-10--|
D------------------------------------------------------|

Main riff
'''''''''
guitar 1
d-------------------------------------------------|
A-------------------------------------------------|
F--7--7-7-7-7-7--7-7-7-7-7--7-7-7-7-7--7-7-10-10--|
C--7--7-7-7-7-7--7-7-7-7-7--7-7-7-7-7--7-7-10-10--|
G--5--5-5-5-5-5--5-5-5-5-5--5-5-5-5-5--5-5-8--8---|
D-------------------------------------------------|
pm .......................................

guitar 2 is silent until a pick scr*pe at the end into

Main riff
'''''''''
both guitars
d-------------------------------------------------|
A-------------------------------------------------|
F--7--7-7-7-7-7--7-7-7-7-7--7-7-7-7-7--7-7-10-10--|
C--7--7-7-7-7-7--7-7-7-7-7--7-7-7-7-7--7-7-10-10--|
G--5--5-5-5-5-5--5-5-5-5-5--5-5-5-5-5--5-5-8--8---|
D-------------------------------------------------|

verse variation
'''''''''''''''
guitar 1
d-------------------------------------------------|
A-------------------------------------------------|
F--7--7-7-7-7-7--7-7-7-7-7--7-7-7-7-7--7-7-10-10--|
C--7--7-7-7-7-7--7-7-7-7-7--7-7-7-7-7--7-7-10-10--|
G--5--5-5-5-5-5--5-5-5-5-5--5-5-5-5-5--5-5-8--8---|
D-------------------------------------------------|
pm........................................

Both guitars
d-------------------------------------------------|
A-------------------------------------------------|
F--7--7-7-7-7-7--7-7-7-7-7--7-7-7-7-7--7-7-10-10--|
C--7--7-7-7-7-7--7-7-7-7-7--7-7-7-7-7--7-7-10-10--|
G--5--5-5-5-5-5--5-5-5-5-5--5-5-5-5-5--5-5-8--8---|
D-------------------------------------------------|

Guitar 2 lead
'''''''''''''
d---------------------------|-------------------------|
Ao-------------------------o|-------------------------|
F--------7---5--------------|--------7---5------7-7---|
C----5-7-------7-5----------|----5-7-------7-5--7-7---|
Go-5---------------5-5-5---o|--5----------------5-5---|
D---------------------------|-------------------------|


Outro riff
''''''''''
Both guitars
d------------|
A------------|
F--7-7-5-7/--|
C--7-7-5-7/--|
G--5-5-3-5/--|
D------------|

Comment and rate
            
Hard to play? Try these video lessons and learn fast. | Correct




comments powered by Disqus
↑ Back to top | Tablatures and chords are parodies/interpretations of the original songs. You may use it for private study, scholarship, research or language learning purposes only