» » »

Viking Skull, Start A War Tabs (ver.1)

Artists:  A B C D E F G H I J K L M N O P Q R S T U V W X Y Z # 

Start A War Tabs (ver.1)

Viking Skull Tabs
Rating:
0/5 (0 votes)
Start A War lessons Tabs too difficult? Try these video lessons and learn fast
                
------------------------------------------------------------------

e|----------------------------------------|
B|----------------------------------------|
G|----------------------------------------|
D|-12---12---12---12---12---12---12---12--|   A
A|-12---12---12---12---12---12---12---12--|
D|-12---12---12---12---12---12---12---12--|

e|----------------------------------------|
B|----------------------------------------|
G|----------------------------------------|
D|-12---12---12---10---10---10---10---10--|   B
A|-13---13---13---10---10---10---10---10--|
D|-12---12---12---10---10---10---10---10--|

e|--------------------------------|
B|--------------------------------|
G|--------------------------------|
D|-0---0---0---0---0---0---0---0--|   C
A|-0---0---0---0---0---0---0---0--|
D|-0---0---0---0---0---0---0---0--|

e|-------------------------------------|
B|-------------------------------------|
G|-------------------------------------|
D|-8---8---8---10---10---10---10---10--|    D
A|-8---8---8---10---10---10---10---10--|
D|-8---8---8---10---10---10---10---10--|

e|----------------------------------------------------------------------|
B|----------------------------------------------------------------------|
G|----------------------------------------------------------------------|
D|----------------------------------------------------------------------|  E
A|----------------------------------------------------------------------|
D|-12---0---0---12---0---0---12---0---13---0---0---10---0---13---0---0--|

e|--------------------------------|
B|--------------------------------|
G|--------------------------------|
D|-7---7---7---7---7---7---7---7--|   F
A|-7---7---7---7---7---7---7---7--|
D|-7---7---7---7---7---7---7---7--|

e|--------------------------------|
B|--------------------------------|
G|--------------------------------|
D|-8---8---8---5---5---5---5---5--|   G
A|-8---8---8---5---5---5---5---5--|
D|-8---8---8---5---5---5---5---5--|

e|-5---5---5---5---5---5---5--------------------------------------|
B|-----------------------------8---8---8---8---8---8---8---8---8--|
G|----------------------------------------------------------------|
D|----------------------------------------------------------------|    H
A|----------------------------------------------------------------|
D|----------------------------------------------------------------|

e|-6---6---6---6---6---6---6---8---8---8---8---8---8---8---8------|
B|-------------------------------------------------------------8--|
G|----------------------------------------------------------------|
D|----------------------------------------------------------------|    I
A|----------------------------------------------------------------|
D|----------------------------------------------------------------|

e|-----------------------------------------------------------|
B|-----------------------------------------------------------|
G|-----------------------------------------------------------|
D|-0------0------12---------0------0------0---10------10-----|  K
A|-0------0------12---------0------0------0---10------10-----|
D|-0------0------12---------0------0------0---10------10-----|

e|---------------------------------------------------------|
B|---------------------------------------------------------|
G|---------------------------------------------------------|
D|-0------0------8---------0------0------0---7---5---3-----|    L
A|-0------0------8---------0------0------0---7---5---3-----|
D|-0------0------8---------0------0------0---7---5---3-----|

e|------------------------------------------------------------|
B|------------------------------------------------------------|
G|------------------------------------------------------------|
D|-0------0------2---3--------0------0------0---7---5---3-----|   M
A|-0------0------2---3--------0------0------0---7---5---3-----|
D|-0------0------2---3--------0------0------0---7---5---3-----|

e|-----------------------------------------------------------------------|
B|-----------------------------------------------------------------------|
G|-----------------------------------------------------------------------|
D|-10---10---10---10---10---10---10---10---10---10---10---10---3------2--|  N
A|-10---10---10---10---10---10---10---10---10---10---10---10---3------2--|
D|-10---10---10---10---10---10---10---10---10---10---10---10---3------2--|

e|-------|
B|-------|
G|-------|
D|-12\---|  O
A|-12\---|
D|-12\---|


COMPOSITION :

(A + B) x 4
(C + D) x 4
E x 8
(C + D) x 4
E x 8
(C + D) x 4
(F + G) x 8
(H + I) x 4
(K + L + M + N) x 2
E x 4
O
            
Submit corrections

comments powered by Disqus
↑ Back to top | Viking Skull Tabs for Start A War. Lyrics for acoustic guitar and electric guitar. Tablatures and chords are parodies/interpretations of the original songs. You may use it for private study, scholarship, research or language learning purposes only