» » »

Viking Skull, Hair Of The Dog Tabs (ver.2)

Artists:  A B C D E F G H I J K L M N O P Q R S T U V W X Y Z # 

Hair Of The Dog Tabs (ver.2)

Viking Skull Tabs
 Rating:
4/5 (4 votes)
Hair Of The Dog lessons Tabs too difficult? Try these video lessons and learn fast
1
                
-----------------------------------------------------------------------

e|----------------|
B|----------------|
G|----------------|
D|-0---x-x-x-x----|   A
A|-0---x-x-x-x-3--|
D|-0---x-x-x-x----|

e|----------------|
B|----------------|
G|---------3---5--|
D|-3---5---3---5--|   B
A|-3---5---1---3--|
D|-3---5----------|

e|-----------------------------|
B|-----------------------------|
G|-7-7-7-7-7---5---7---10------|
D|-7-7-7-7-7---5---7---10------|   C
A|-5-5-5-5-5---3---5----8------|
D|-----------------------------|

e|-------------------------------|
B|-------------------------------|
G|----------------------------5--|
D|-x-x-3---3------x-x-5---7---5--|   D
A|-x-x-3---3------x-x-5---7---3--|
D|-x-x-3---3------x-x-5---7------|

e|-----------------------------|
B|-----------------------------|
G|-7-7-7-7-7---5---7\----------|
D|-7-7-7-7-7---5---7\----------|    E
A|-5-5-5-5-5---3---5\----------|
D|-----------------------------|

e|-------
B|-10~~--
G|-10~~--
D|-------|     F
A|-------|
D|-------|

e|---------------------------|
B|---------------------------|
G|---------------------3-----|
D|-5-5-5-5-5---3---5---3-----|   G
A|-5-5-5-5-5---3---5---1-----|
D|-5-5-5-5-5---3---5---------|

e|-------------------------------|
B|-------------------------------|
G|-5\3/5---5------7\5/7---7------|
D|-5\3/5---5------7\5/7---7---3--|  H
A|-3\1/3---3------5\3/5---5---3--|
D|----------------------------3--|

e|-----|
B|-----|
G|-7\--|
D|-7\--|          I
A|-5\--|
D|-----|


COMPOSITION

(A x 3 + B) x 4
pause
(C + D) x 4
E x 4
F
(A x 3 + B) x 2
E x 4
F
(C + D) x 4
E x 4
(G + H) x 4
E x 4
F
(C + D) x 4
(A x 3 + B) x 4
I
            
Submit corrections

comments powered by Disqus
↑ Back to top | Viking Skull Tabs for Hair Of The Dog. Lyrics for acoustic guitar and electric guitar. 1 Tablatures and chords are parodies/interpretations of the original songs. You may use it for private study, scholarship, research or language learning purposes only