» » »

Viking Skull, Hair Of The Dog Tabs (ver.1)

Artists:  A B C D E F G H I J K L M N O P Q R S T U V W X Y Z # 

Hair Of The Dog Tabs (ver.1)

Viking Skull Tabs
Rating:
4/5 (1 vote)
Hard to play? Try these video lessons and learn fast.
                'Hair of the Dog' from the album "Doom, Gloom, Heartache & Whiskey"

No solo yet, I'm afraid. Am working on it.

Tuning - Drop D



Drum Intro

Intro
'''''
gtr 1&2 

D--------------------------------|
A--------------------------------|
F--------------------------------|
C--------------------------------|
G--------3------3------3-3-5-8-10|
D--000000-000000-000000--3-5-8-10|   Repeat x4


D--------------------------------|
A--------------------------------|
F--------------------------------|
C--7-777-5-7-10------------------|
G--5-555-3-5-8---3-333-5-33-8-10-|
D----------------3-333-5-33-8-10-|   Repeat x 4


Verse 1

D------------|
A------------|
F------------|
C--7-777-5-7-|
G--5-555-3-5-|                     
D------------|

"I'm hooked on the cheap stuff"

D------------|
A------------|
F------------|
C--7-777-5-7-|
G--5-555-3-5-|                     
D------------|

"And it's making me go blind"

D------------|
A------------|
F------------|
C--7-777-5-7-|
G--5-555-3-5-|                     
D------------|

"My vein's are going crazy for"

D------------|
A------------|
F------------|
C--7-777-5-7-|
G--5-555-3-5-|                     
D------------|

"More booze before I die"

D-------|
A-------|
F-------|
C----10-|
G----8--|
D-------|

Intro riff
..........

D--------------------------------|
A--------------------------------|
F--------------------------------|
C--------------------------------|
G--------3------3------3-3-5-8-10|
D--000000-000000-000000--3-5-8-10|     Repeat x2


Verse 2
........

D------------|
A------------|
F------------|
C--7-777-5-7-|
G--5-555-3-5-|                     
D------------|

"My brain's in constant pain"

D------------|
A------------|
F------------|
C--7-777-5-7-|
G--5-555-3-5-|                     
D------------|

"Any my bones are bruised"

D------------|
A------------|
F------------|
C--7-777-5-7-|
G--5-555-3-5-|                     
D------------| 

"Stomach screaming for another shot"

D------------|
A------------|
F------------|
C--7-777-5-7-|
G--5-555-3-5-|                     
D------------|

"I don't want to ever stop"

D-------|
A-------|
F-------|
C----10-|
G----8--|
D-------|


Chorus
.......

D--------------------------------|
A--------------------------------|
F--------------------------------|
C--7-777-5-7-10------------------|
G--5-555-3-5-8---3-333-5-33-8-10-|
D----------------3-333-5-33-8-10-|  Repeat x4

"Hair of the Dog!"
"Hair of the Dog!"
"Hair of the Dog!"


Verse/Drum Solo
................

D------------|
A------------|
F------------|
C--7-777-5-7-|
G--5-555-3-5-|                     
D------------| Repeat x4



Chords over solo
................

D-----------------------------|
A-----------------------------|
F-------------3---------------|
C-------------1---------------|
G---5-555-3-5--0-000-3-00-3-5-|
D---5-555-3-5--0-000-3-00-3-5-|   Repeat x4


Verse 3
........


D------------|
A------------|
F------------|
C--7-777-5-7-|
G--5-555-3-5-|                     
D------------|

"You welcome the new day"

D------------|
A------------|
F------------|
C--7-777-5-7-|
G--5-555-3-5-|                     
D------------|

"Sun digs deep in my eyes"

D------------|
A------------|
F------------|
C--7-777-5-7-|
G--5-555-3-5-|                     
D------------|

"My veins are going crazy for"

D------------|
A------------|
F------------|
C--7-777-5-7-|
G--5-555-3-5-|                     
D------------|

"More booze before I die"

D-------|
A-------|
F-------|
C----10-|
G----8--|
D-------|


Chorus
.......


D--------------------------------|
A--------------------------------|
F--------------------------------|
C--7-777-5-7-10------------------|
G--5-555-3-5-8---3-333-5-33-8-10-|
D----------------3-333-5-33-8-10-|

"Hair of the Dog!"
"Hair of the Dog!"
"Hair of the Dog!"


Intro riff
..........


D--------------------------------|
A--------------------------------|
F--------------------------------|
C--------------------------------|
G--------3------3------3-3-5-8-10|
D--000000-000000-000000--3-5-8-10|  Repeat x3


D------------------------------------|
A------------------------------------|
F------------------------------------|
C------------------------------------|
G--------3------3------3-3-5-8-10-12-|
D--000000-000000-000000--3-5-8-10-12-|
            

comments powered by Disqus
↑ Back to top | Viking Skull Tabs for Hair Of The Dog. Lyrics for acoustic guitar and electric guitar. Tablatures and chords are parodies/interpretations of the original songs. You may use it for private study, scholarship, research or language learning purposes only