» » »

Viking Skull, Blackened Sunrise Tabs (ver.3)

Artists:  A B C D E F G H I J K L M N O P Q R S T U V W X Y Z # 

Blackened Sunrise Tabs (ver.3)

Viking Skull Tabs
 Rating:
4/5 (5 votes)
Blackened Sunrise lessons Tabs too difficult? Try these video lessons and learn fast
1
                Intro/Preverse   Guitar 1
|--------------------------------------------------|
|--------------------------------------------------|
|--------------------------------------------------|
|-15-14----14-14-12-----12-12-10-----10-12-10-7----|
|--------------------------------------------------|
|--------------------------------------------------|

|--------------------------------------------------|
|--------------------------------------------------|
|--------------------------------------------------|
|-15-14----14-14-12-----12-12-10-----10-12-10-7----|
|--------------------------------------------------|
|--------------------------------------------------|

|--------------------------------|
|--------------------------------|
|--------------------------------|
|-12-10-10----7-10-12-10-7-10-14-|
|--------------------------------|
|--------------------------------|

|--------------------------------------------------|
|--------------------------------------------------|
|--------------------------------------------------|
|-15-14----14-14-12-----12-12-10-----10-12-10-7----|
|--------------------------------------------------|
|--------------------------------------------------|

Intro Guitar 2
|--------------|
|--------------|
|--------------|
|--------------|
|-2~-----------|
|-0~-----------|

|--------------|
|--------------|
|--------------|
|--------------|
|--------------|
|--------------|

|--------------|
|--------------|
|--------------|
|-5~-----------|
|-3~-----------|
|--------------|

|--------------|
|--------------|
|--------------|
|--------------|
|-2~-----------|
|-0~-----------|

Preverse Guitar 2


|-----------------|
|-----------------|
|-----------------|
|-----------------|
|-2-2-2-2-2-2-2-2-|
|-0-0-0-0-0-0-0-0-|


|-----------------|
|-----------------|
|-----------------|
|-----------------|
|-2-2-2-2-2-2-2-2-|
|-0-0-0-0-0-0-0-0-|

|-----------------|
|-----------------|
|-----------------|
|-5-5-5-5-5-5-5-5-|
|-3-3-3-3-3-3-3-3-|
|-----------------|

|-----------------|
|-----------------|
|-----------------|
|-----------------|
|-2-2-2-2-2-2-2-2-|
|-0-0-0-0-0-0-0-0-|




Verse (both guitars)
|-------------------------------------------|
|-------------------------------------------|
|-------------------------------------------|
|-------------------------------------------|
|-5---7----2--------------------------------|
|-3---5----0---0-0-0-0---0-0-0-0---0-0-0-0--|
              
              PM--------------------------|  
              

|-------------------------------------------|
|-------------------------------------------|
|-------------------------------------------|
|-------------------------------------------|
|-5---7----2--------------------------------|
|-3---5----0---0-0-0-0---0-0-0-0---0-0-0-0--|
              
              PM--------------------------|   

|------------------------------------------------------------|
|------------------------------------------------------------|
|------------------------------------------------------------|
|------------------------------------------------------------|
|-5---7----10----10-10-10-10-----10-10-10-10-----10-10-10-10-|
|-3---5----8-----8--8--8--8------8--8--8--8------8--8--8--8--|
              
              PM-------------------------------------------|   

|-------------------------------------------|
|-------------------------------------------|
|-------------------------------------------|
|-------------------------------------------|
|-5---7----2--------------------------------|
|-3---5----0---0-0-0-0---0-0-0-0---0-0-0-0--|

              PM--------------------------|   
            
Submit corrections

comments powered by Disqus
↑ Back to top | Viking Skull Tabs for Blackened Sunrise. Lyrics for acoustic guitar and electric guitar. 1 Tablatures and chords are parodies/interpretations of the original songs. You may use it for private study, scholarship, research or language learning purposes only