>
 >
Blackened Sunrise

Blackened Sunrise Guitar Tabs

Viking Skull - Blackened Sunrise chords, tabs, tablatures, lyrics

Guitar lessons | Add/correct | Request | Top 50 tabs Artists:  A B C D E F G H I J K L M N O P Q R S T U V W X Y Z 0-9

Blackened Sunrise Guitar Tabs – Viking Skull

CD, Sheet music, Poster

Do you like Blackened Sunrise? Share with your friends now
TabsTabs v2
"Blackened Sunrise" by Viking Skull


Tuning: some random tuning between dropped C# and dropped D. found it best to tune to 
C#. turn the song on. and hit the open D string and slowly tune up til it sounds in key. 
in the ass, i know.

intro/main riffs:
|------------------------------||------------------------------|
|------------------------------||------------------------------|
|------10-9-99-7-77-5-575------||------7-5-5----5---5-5/9------|
|---------------------------7--||------------77---7------------|
|--5-5-------------------------||--3-3-------------------------|
|------------------------------||------------------------------|

last bar into verse:
|------------------------------|
|------------------------------|
|------10-9-99-7-77------------|
|--------------------8-7-0-----|
|--5-5---------------8-7-0-----|
|--------------------8-7-0-----|

verse riff:
|---------------------------||----------------------------|
|---------------------------||----------------------------|
|---------------------------||----------------------------|
|--------------------8-7-0--||---------------------8-7-10-|
|--------------------8-7-0--||---------------------8-7-10-|
|-00000-00000-00000--8-7-0--||-00000-00000-00000---8-7-10-|

|-----------------------------------------||----------------------------|
|-----------------------------------------||----------------------------|
|-----------------------------------------||----------------------------|
|----------------------------------8-7-0--||---------------------8-7-10-|
|----------------------------------8-7-0--||---------------------8-7-10-|
|-1010101010-1010101010-1010101010-8-7-0--||-00000-00000-00000---8-7-10-|

rythm riff behind solo:
|---------------------------||---------------------------|
|---------------------------||---------------------------|
|---------------------------||---------------------------|
|--77777-77777-77777-77777--||--77777-77777-77777-77777--|
|--55555-55555-55555-55555--||--55555-55555-55555-55555--|
|---------------------------||---------------------------|

|---------------------------||---------------------------|
|---------------------------||---------------------------|
|---------------------------||---------------------------|
|--55555-55555-55555-55555--||--77777-77777-77777-77777--|
|--33333-33333-33333-33333--||--55555-55555-55555-55555--|
|---------------------------||---------------------------|

last bar into break riff
|---------------------------|
|---------------------------|
|---------------------------|
|--77777-77777-77777--8-7---|
|--55555-55555-55555--8-7---|
|---------------------8-7---|

break riff 1:
|-----------------------|
|-------5555-6666-8888--|
|--7777-7777-7777-7777--|
|--0000-----------------|
|-----------------------|
|-----------------------|

last bar into break riff 2:
|------------------------|
|-------5555-6666--------|
|--7777-7777-7777--------|
|--0000------------------|
|-----------------3-2-0--|
|-----------------3-2-0--|

break riff 2:
|-----------------------||-----------------------|
|-----------------------||-----------------------|
|-----------------------||-----------------------|
|--000-2-00-3-2-3-5-3-2-||--000-2-00-3-2-3-5-----|
|-----------------------||-----------------------|
|-----------------------||-----------------------|

outro riff:
|-----------------------|
|-----------------------|
|-----------------------|
|-----------------------|
|-0--0-8-7-0-14-10-0-12-|
|-0--0-8-7-0-14-10-0-12-|

enjoy.





Comments


Popular Viking Skull tabs & chords
Born In Hell Bass Tabs
Beers Drugs And Bitches Tabs
Blackened Sunrise 1 Tabs
Blackened Sunrise Intro Tabs
Hair Of The Dog Tabs
Hair Of The Dog 1 Tabs
Skull Heaven Tabs
Skull Heaven 1 Tabs
Start A War Tabs
Wizards Sleeve Tabs


Song lyrics



↑ Back to top | Tablatures and chords are parodies/interpretations of the original songs. You may use it for private study, scholarship, research or language learning purposes only
© 2014 AZChords.com Contact us | Privacy policy | DMCA | Add/correct tabs | Request tabs | Top 50 tabs