>
 >
Beers Drugs And Bitches

Beers Drugs And Bitches Guitar Tabs

Viking Skull - Beers Drugs And Bitches chords, tabs, tablatures, lyrics

Guitar lessons | Add/correct | Request | Top 50 tabs Artists:  A B C D E F G H I J K L M N O P Q R S T U V W X Y Z 0-9

Beers Drugs And Bitches Guitar Tabs – Viking Skull

CD, Sheet music, Poster

Do you like Beers Drugs And Bitches? Share with your friends now
Tabs
Band:  Viking Skull

Copyright (c)  (Grand Recordings) (2003)
Version 1.0 - (05/09/06)



.  - palm mute           /  - slide up to
\  - slide down to       ~  - vibrato
h  - hammer on           b  - Bend
p  - pull off            Suffixes for bend
t  - tap                 f  - full bend    h - half bend
ph - pinched harmonic    q  - quarter bend t - tap bend
*  - see comment         ^  - Hold bend    r release bend
x  - Stuccatto           ~  - vibrato bend
,  - slight palm mute    () - ghost note, sustained note
"  - tremolo note        <> - harmonic
pb - pre bend

Tuning D A D G B E

 Intro

 [-PM-]    [-PM-]    [-PM-]     [-PM-]
|-----------------------------------------|
|-----------------------------------------|
|-----------------------------------------|
|-----------------------------------------|
|-------5-5-------5-5-------5-5-------3-3-|
|-0-0-0-----0-0-0-----0-0-0-----0-0-0-----| Rpt 3 X


 Guitar 1
 [-PM-]    [-PM-]         PM  [PM]  
[---------------------------------------|
[---------------------------------------|
[---------------------------------------|
[---------------------------------------|
[-------5-5-------5---------5-----5--3--|
[-0-0-0-----0-0-0---7p6-7-7---7-6-5--3--|
[Guitar 2
[---------------------------------------|
[---------------------------------------|
[---------------------------------------|
[---------------------------------------|
[-------------------------------5--3----|
[-------------------------------5--3----|

 Main Riff

 [-PM-]    [-PM-]    [-PM-]     [-PM-]
|-----------------------------------------|
|-----------------------------------------|
|-----------------------------------------|
|-----------------------------------------|
|-------5-5-------5-5-------5-5-------3-3-|
|-0-0-0-----0-0-0-----0-0-0-----0-0-0-----|Rpt 3 X 




 [-PM-]    [-PM-]         PM  [PM]  
|---------------------------------------|
|---------------------------------------|
|---------------------------------------|
|---------------------------------------|
|-------5-5-------5---------5-----5--3--|
|-0-0-0-----0-0-0---7p6-7-7---7-6-5--3--|

 Riff A

 Guitar 1
 [-PM-]    [-PM-]    [-PM-]     [-PM-]
[-----------------------------------------|
[-----------------------------------------|
[-----------------------------------------|
[-----------------------------------------|
[-------5-5-------5-5-------5-5-------3-3-|
[-0-0-0-----0-0-0-----0-0-0-----0-0-0-----|
[Guitar 2
[[-PM-]    [-PM-]    [-PM-]     [-PM-]
[-----------------------------------------|
[-----------------------------------------|
[-----------------------------------------|
[---------------------------5-5-----------|
[-------5-5-------8-8-----------------3-5-|
[-0-0-0-----0-0-0-----0-0-0-----0-0-0-----| Rpt 3 X

 Guitar 1
 [-PM-]    [-PM-]         PM  [PM]  
[---------------------------------------|
[---------------------------------------|
[---------------------------------------|
[---------------------------------------|
[-------5-5-------5---------5-----5--3--|
[-0-0-0-----0-0-0---7p6-7-7---7-6-5--3--|
[Guitar 2
[[-PM-]    [-PM-]         PM  [PM]  
[---------------------------------------|
[---------------------------------------|
[---------------------------------------|
[---------------------------------------|
[-------5-5-------8---------5-----5--3--|
[-0-0-0-----0-0-0---7p6-7-7---7-6-5--3--|

 Verse is Main Riff Structure

 Additional guitar with wah appears halfway through
 [-PM-]    [-PM-]    [-PM-]     
|---------------------------------------------|
|---------------------------------------------|
|---------------------------------------------|
|---------------------------------------------|
|-------888-------888-------888-8p7----7------|
|-0-0-0-----0-0-0-----0-0-0---------10---10-7-| Rpt 3 X

 [-PM-]    [-PM-]         PM  [PM]  
|---------------------------------------|
|---------------------------------------|
|---------------------------------------|
|---------------------------------------|
|-------888-------8---------5-----5--3--|
|-0-0-0-----0-0-0---7p6-7-7---7-6-5--3--|

 Riff B

 Guitar 1
 [-PM-]    [-PM-]    [-PM-]     [-PM-]
[-----------------------------------------|
[-----------------------------------------|
[-----------------------------------------|
[-------7-7-------7-7-------7-7-------5-5-|
[-------5-5-------5-5-------5-5-------3-3-|
[-0-0-0-----0-0-0-----0-0-0-----0-0-0-----|
[Guitar 2
[[-PM-]    [-PM-]    [-PM-]     [-PM-]
[-----------------------------------------|
[-----------------------------------------|
[-----------------------------------------|
[---------------------------5-5-----------|
[-------5-5-------8-8-----------------3-5-|
[-0-0-0-----0-0-0-----0-0-0-----0-0-0-----| Rpt 3 X

 Guitar 1
 [-PM-]    [-PM-]         PM  [PM]  
[---------------------------------------|
[---------------------------------------|
[---------------------------------------|
[-------7-7-------7---------------------|
[-------5-5-------5---------5-----5--3--|
[-0-0-0-----0-0-0---7p6-7-7---7-6-5--3--|
[Guitar 2
[[-PM-]    [-PM-]         PM  [PM]  
[---------------------------------------|
[---------------------------------------|
[---------------------------------------|
[---------------------------------------|
[-------5-5-------8---------5-----5--3--|
[-0-0-0-----0-0-0---7p6-7-7---7-6-5--3--|

 Rpt Verse

 Rpt Riff B

 Mid 8

|-------------------------------------------------------------------|
|-------------------------------------------------------------------|
|-------------------------------------------------------------------|
|-5------------(5)--------------------------------------------------|
|-3------------(3)------------5------------(5)----------------------|
|-----------------------------5------------(5)-------------------x\-|


 [-PM-]    [-PM-]    [-PM-]     [-PM-]
|-----------------------------------------|
|-----------------------------------------|
|-----------------------------------------|
|-----------------------------------------|
|-------5-5-------5-5-------5-5-------5-5-|
|-0-0-0-----0-0-0-----0-0-0-----0-0-0-----|

|-------------------------------------------------------------------|
|-------------------------------------------------------------------|
|-------------to feedback-------------------------------------------|
|-5------------(5)--------------------------------------------------|
|-3------------(3)------------5------------(5)----------------------|
|-----------------------------5------------(5)-------------------x\-|


 Guitar solo

 With wah

|----10----10----10----10-13-15-13-15-13-15-13----------------------|
|-13b---13b---13b---13b------------------------15p13-15p13----13----|
|----------------------------------------------------------14----14-|
|-------------------------------------------------------------------|
|-------------------------------------------------------------------|
|-------------------------------------------------------------------|


|---------------------------------------------------------------------|
|---------------------------------------------------------------------|
|-12-14p12-12-14--------10--------------------------------------------|
|----------------12--12----12p10-12p10----10----------10-------12-10--|
|--------------------------------------12----12p10-12----12-10--------|
|---------------------------------------------------------------------|


|-------------------------------------------------------------------|
|----------------------10----10-13-1010-13-1010-13-1010-13-10-13-10-|
|----10----10-12-10-12----12----------------------------------------|
|-12----12----------------------------------------------------------|
|-------------------------------------------------------------------|
|-------------------------------------------------------------------|

    ~~~~~            h h ~~~                     h             h
|-------------------------------------------------------------------|
|-13b----\---------------------------6------------------------------|
|------------------------7----7p5-------7p5---10-12-b-12b--10-12p10-|
|------------------5-6-7----------7---------7-----------------------|
|----------3/5-5----------------------------------------------------|
|-------------------------------------------------------------------|


|------------------------------------------------------------|
|------------------------------------------------------------|
|-12b--12brp10----10-----------------------------------------|
|--------------12----12-10-12p10----10-----------------------|
|--------------------------------12----12-10-12-10\8-10p8-88-|
|------------------------------------------------------------|


|------------------------------------------------|
|------------------------------------------------|
|-------5-7p5---10----12b12p10-12p10----10-------|
|-0--/7-------7----------------------12----12----|
|------------------------------------------------|
|------------------------------------------------|

 Backing for solo is verse structure


|-------------------------------------------------------------------|
|-------------------------------------------------------------------|
|-------------to feedback-------------------------------------------|
|-5------------(5)--------------------------------------------------|
|-3------------(3)------------5------------(5)--------------------/-|
|-----------------------------5------------(5)--------------------/-|


                    Pick scrape
|-----------------------------------------------------------------------|
|-----------------------------------------------------------------------|
|-----------------------------------------------------------------------|
|-----------------------------------------------------------------------|
|-10-10--12-12------(12)---\-\---6----(6)----7-/10---10/12-12----(12)---|
|-10-10--12-12------(12)----\-\--6----(6)----7-/10---10/12-0-----(0)----|

 Pick scrape
|---------------------------------------------------|
|---------------------------------------------------|
|---------------------------------------------------|
|---------------------------------------------------|
|-\-\--6----(6)----7-/10---10/12-12----(12)---------|
|--\-\-6----(6)----7-/10---10/12-12----(12)---------| Rpt 2 X

 Pick scrape        turn down volume
|---------------------------------------------------|
|---------------------------------------------------|
|---------------------------------------------------|
|---------------------------------------------------|
|-\-\--6----(6)----7-/10---10/12-12----(12)-------\-|
|--\-\-6----(6)----7-/10---10/12-12----(12)-------\-|

 Cleanish tone
|----------------------------------------------|
|----------------------------------------------|
|----------------------------------------------|
|----------------------------------------------|
|-6----(6)----7-/10---10/12-12----(12)-------\-|
|-6----(6)----7-/10---10/12-12----(12)-------\-| Rpt 7 X


 Pick scrape
|---------------------------------------------------|
|---------------------------------------------------|
|---------------------------------------------------|
|---------------------------------------------------|
|-\-\--6----(6)----7-/10---10/12-12----(12)---------|
|--\-\-6----(6)----7-/10---10/12-12----(12)---------| Rpt 6 X

 Fill
    ~~~~~~~
|------------|
|------------|
|------------|
|------------|
|------------|
|-/22--------|

 Pick scrape
|-----------------------------------------------------------------|
|-----------------------------------------------------------------|
|-----------------------------------------------------------------|
|-----------------------------------------------------------------|
|-\-\--6----(6)----7-/10---10/12-12-12-12-12-12-12-12-12-12-12-12-|
|--\-\-6----(6)----7-/10---10/12-12-12-12-12-12-12-12-12-12-12-12-|

|----------------------------------------------------------------|
|----------------------------------------------------------------|
|----------------------------------------------------------------|
|----------------------------------------------------------------|
|-12-12-12-12-12-12-12-12-12-12-12-12-12-12--(12)-\12\--12\--12\-|
|-12-12-12-12-12-12-12-12-12-12-12-12-12-12--(12)-\12\--12\--12\-|



END





Comments


Popular Viking Skull tabs & chords
Born In Hell Bass Tabs
Blackened Sunrise Tabs
Blackened Sunrise 1 Tabs
Blackened Sunrise Intro Tabs
Hair Of The Dog Tabs
Hair Of The Dog 1 Tabs
Skull Heaven Tabs
Skull Heaven 1 Tabs
Start A War Tabs
Wizards Sleeve Tabs


Song lyrics



↑ Back to top | Tablatures and chords are parodies/interpretations of the original songs. You may use it for private study, scholarship, research or language learning purposes only
© 2014 AZChords.com Contact us | Privacy policy | DMCA | Add/correct tabs | Request tabs | Top 50 tabs