>
 >
Syys

Syys Guitar Tabs

Viikate - Syys chords, tabs, tablatures, lyrics

Guitar lessons | Add/correct | Request | Top 50 tabs Artists:  A B C D E F G H I J K L M N O P Q R S T U V W X Y Z 0-9

Syys Guitar Tabs – Viikate

CD, Sheet music, Poster

Do you like Syys? Share with your friends now
Tabs
-------------------------------------------------------------------------------
-------------------------------------------------------------------------------

Tuning: EADGBe

xxxxxxxxxxxxxxxxxxxxxxxxxxxxxxxxxxxxxxxxxxxxxxxxxxxxxxxxxxxxxxxxxxxxxxxxxxxxxx

 Intro:

e|-----5-0-0-0-1-0-0-0----------5-0-0-0-1-0-0-0------------------------------|
B|-3-------------------3----3-------------------3----------------------------|
G|---------------------------------------------------------------------------|
D|---------------------------------------------------------------------------|
A|---------------------------------------------------------------------------|
E|---------------------------------------------------------------------------|

e|-5---5-0-0-0-1-0-0-0------5---5-0-0-0-1-0-0-0------------------------------|
B|-6-------------------3----6-------------------3----------------------------|
G|-7------------------------7------------------------------------------------|
D|-7------------------------7------------------------------------------------|
A|-5------------------------5------------------------------------------------|
E|-x------------------------x-------------------------10\--------------------|

xxxxxxxxxxxxxxxxxxxxxxxxxxxxxxxxxxxxxxxxxxxxxxxxxxxxxxxxxxxxxxxxxxxxxxxxxxxxxx

 Verse:

e|---------------------------------------------------------------------------| 
B|---------------------------------------------------------------------------|
G|---------------------------------------------------------------------------|
D|-0--7-7-7--5-5-5--7-7-7--0-0-0--7-7-7--5-5-5--7-7-7------------------------|
A|---------------------------------------------------------------------------|
E|---------------------------------------------------------------------------|
                                                               
e|---------------------------------------------------------------------------|
B|---------------------------------------------------------------------------|
G|----5--5-5-5-7-5-----------------------------------------------------------|
D|-7---------------5--5h7--7-7-7--7--5--5-5-5h7-5\3--3h5--5-5-5--5--3-2-0----|
A|---------------------------------------------------------------------------|
E|---------------------------------------------------------------------------|

 This is played three times

xxxxxxxxxxxxxxxxxxxxxxxxxxxxxxxxxxxxxxxxxxxxxxxxxxxxxxxxxxxxxxxxxxxxxxxxxxxxxx

 Chorus:

e|---------------------------------------------------------------------------|
B|---------------------------------------------------------------------------|
G|---------------------------------------------------------------------------|
D|-0-3-2-0--5--5h7-5--0-3-2-0------0-3-2-0--5--5h7-5--0-3-2-0----------------|
A|---------------------------------------------------------------------------|
E|---------------------------------------------------------------------------|

e|---------------------------------------------------------------------------|
B|---------------------------------------------------------------------------|
G|---------------------------------------------------------------------------|
D|-0-3-2-0---5--5h7-5--0-3-2-0--5--5h7-5--0-3-2-0--5--5h7-5--0-3-2-0---------|
A|---------------------------------------------------------------------------|
E|---------------------------------------------------------------------------|

e|---8-8-10------------------------------------------------------------------|
B|--8-8----------------------------------------------------------------------|
G|---------------------------------------------------------------------------|
D|---------------------------------------------------------------------------|
A|---------------------------------------------------------------------------|
E|---------------------------------------------------------------------------|


xxxxxxxxxxxxxxxxxxxxxxxxxxxxxxxxxxxxxxxxxxxxxxxxxxxxxxxxxxxxxxxxxxxxxxxxxxxxxx
 
 2.Verse:

e|---------------------------------------------------------------------------| 
B|----10-10-10--8-8-8--10-10-10---------10-10-10--7-7-7--10-10-10------------|
G|-7-----------------------------7-7-7---------------------------------------|
D|---------------------------------------------------------------------------|
A|---------------------------------------------------------------------------|
E|---------------------------------------------------------------------------|

e|----8--8-8-8h10-8----------------------------------------------------------|
B|-10---------------8-8h10-10-10-10--10--8--8-8-8h10-8\6-6h8-8-8-8--8--6-----|
G|-----------------------------------------------------------------------9-7-|
D|---------------------------------------------------------------------------|
A|---------------------------------------------------------------------------|
E|---------------------------------------------------------------------------|

 This is played twice

xxxxxxxxxxxxxxxxxxxxxxxxxxxxxxxxxxxxxxxxxxxxxxxxxxxxxxxxxxxxxxxxxxxxxxxxxxxxxx

 2. Chorus:

e|---------------------------------------------------------------------------|
B|-----------8--8-10-8------------------------8--8-10-8----------------------|
G|-7-10-9-7-------------7-10-9-7----7-10-9-7-------------7-10-9-7------------|
D|---------------------------------------------------------------------------|
A|---------------------------------------------------------------------------|
E|---------------------------------------------------------------------------|


e|---------------------------------------------------------------------------|
B|-----------8--8h10-8------------8--8h10-8------------8--8h10-8-------------|
G|-7-10-9-7-------------7-10-9-7-------------7-10-9-7-------------7-10-9-7---|
D|---------------------------------------------------------------------------|
A|---------------------------------------------------------------------------|
E|---------------------------------------------------------------------------|


e|--8-8-10-------------------------------------------------------------------|
B|-8-8-----------------------------------------------------------------------|
G|---------------------------------------------------------------------------|
D|---------------------------------------------------------------------------|
A|---------------------------------------------------------------------------|
E|---------------------------------------------------------------------------|


xxxxxxxxxxxxxxxxxxxxxxxxxxxxxxxxxxxxxxxxxxxxxxxxxxxxxxxxxxxxxxxxxxxxxxxxxxxxxx

 Outro:

e|-----5-0-0-0-1-0-0-0-------------5-0-0-0-1-0-0-0---------------------------|
B|---------------------3---------------------------3-------------------------|
G|---------------------------------------------------------------------------|
D|-0---------------------------0---------------------------------------------|
A|---------------------------------------------------------------------------|
E|---------------------------------------------------------------------------|

e|-5---5-0-0-0-1-0-0-0------5----5-0-0-0-1-0-0-0---10------------------------|
B|-6-------------------3----6----------------------10------------------------|
G|-7------------------------7----------------------7-------------------------|
D|-7------------------------7------------------------------------------------|
A|-5------------------------5------------------------------------------------|
E|-x------------------------x------------------------------------------------|


xxxxxxxxxxxxxxxxxxxxxxxxxxxxxxxxxxxxxxxxxxxxxxxxxxxxxxxxxxxxxxxxxxxxxxxxxxxxxx


| /  slide up
| \  slide down
| h  hammer-on
| p  pull-off
| ~  vibrato
| +  harmonic
| x  Mute note
===============================================================================





Comments


Popular Viikate tabs & chords
Oi Pimeys Chords
Hallamaatuska Tabs
Hautajaissydn Intro Tabs
Kivi Itkee Vihre Tabs
Kivi Itkee Vihreaa Tabs
Pohjoista Viljaa Tabs
Routaisten Peltojen Pehtoorit Tabs


Song lyrics



↑ Back to top | Tablatures and chords are parodies/interpretations of the original songs. You may use it for private study, scholarship, research or language learning purposes only
© 2014 AZChords.com Contact us | Privacy policy | DMCA | Add/correct tabs | Request tabs | Top 50 tabs