>
 >
Routaisten Peltojen Pehtoorit

Routaisten Peltojen Pehtoorit Guitar Tabs

Viikate - Routaisten Peltojen Pehtoorit chords, tabs, tablatures, lyrics

Guitar lessons | Add/correct | Request | Top 50 tabs Artists:  A B C D E F G H I J K L M N O P Q R S T U V W X Y Z 0-9

Routaisten Peltojen Pehtoorit Guitar Tabs – Viikate

CD, Sheet music, Poster

Do you like Routaisten Peltojen Pehtoorit? Share with your friends now
Tabs
                             VIIKATE: Routaisten Peltojen Pehtoorit

Tuning E
    E
e|-----------------------------------------------------------------------------|
H|-----------------------------------------------------------------------------|
G|-----------------------------------------------------------------------------|
D|--2------2--3--2--0--2~~~~-2--3--2--0--2~~~~--2--3--2--0--2~~~~-pick slide---|
A|--2--------------------------------------------------------------------------|
E|--0--------------------------------------------------------------------------|

Main melody:
    E        G          A
e|-------------------------------------------|
H|-------------------------------------------|
G|--9--9\7--------7-7/9--9--7------7---------|
D|----------9--9---------------10-----9~~~~--|
A|-------------------------------------------|
E|-------------------------------------------|

   E        G         A                     E
e|-------------------------------------------------------|
H|-------------------------------------------------------|
G|-9--9\7--------7-7/9--9--7------7----------------------|
D|---------9--9---------------10-------9~~--7------7/9---|
A|---------------------------------------------10--------|
E|-------------------------------------------------------|


   E          G        A          E
e|--------------------------------------|
H|--------10/12--12-8-10--8-10-12-10-8--|
G|--9---9-------------------------------|
D|--------------------------------------|
A|--------------------------------------|
E|--------------------------------------|

   E          D       A        C
e|-------10-10-10--8-7-8--7----8-8---7-------------------|
H|--9-9---------------------10---------10----------------|
G|-------------------------------------------------------|
D|-------------------------------------------------------|
A|-------------------------------------------------------|
E|-------------------------------------------------------|
   E         G                A               E
e|------------------------------------------------------|
H|-----------10-/12--12--8--10--8--10-/12--10--8--------|
G|--9---9-9---------------------------------------9~~~~-|
D|------------------------------------------------------|
A|------------------------------------------------------|
E|------------------------------------------------------|

   E
e|----12--12---------12--slide down the neck|
H|--12--12--12~~~~---12---------------------|
G|------------------------------------------|
D|------------------------------------------|
A|------------------------------------------|
E|------------------------------------------|



Repeat main melody without end
Then...
   D         E         C      E       D        E      C
e|------------------------------------------------------------10--8-|
H|--10---8-7-----7---8--7--------------10---8-7------7--8-7-7-------|
G|-------------9-----------9--7--9~~--------------9-----------------|
D|------------------------------------------------------------------|
A|------------------------------------------------------------------|
E|------------------------------------------------------------------|

e|-----------------------------------|
H|--10---8-7-----7---8--7------------|
G|-------------9-----------9--7--9~~-|
D|-----------------------------------|
A|-----------------------------------|
E|-----------------------------------|

                        Efr7 D   Efr7
e|------------------8~~--12--10--12~~-----12--12-------|
H|-10---8-7------7--8~~--12--10--12~~---12--12--12~~---|
G|------------9----------------------------------------|
D|-----------------------------------------------------|
A|-----------------------------------------------------|
E|-----------------------------------------------------|


Main melody from little lower position
e|-------------------------------------------------------------------------|
H|-------------------------------------------------------------------------|
G|-------------------------------------------------------------------------|
D|--2--2-0------0-2-2-2-0---0------2--2-0-------0-2-2-2-0---0--------------|
A|---------2--2-----------3---2~~---------2--2------------3----2~~--0---0-2|
E|--------------------------------------------------------------------3----|

e|-------------------------------------------------------------------------|
H|------------------------------------3-3-3-1-0-1-0---1-1-0----------------|
G|--------4--4-0-2-0-2-4-2-0------------------------2-------2--------------|
D|-2--2-5----------------------2--2-2--------------------------------------|
A|-------------------------------------------------------------------------|
E|-------------------------------------------------------------------------|

e|-------------------------------------------------------------------------|
H|-------------------------------------------------------------------------|
G|-----------4--4--0--2--0--2--4--2--0-------------------------------------|
D|--2--2-2-5----------------------------2~~--0----0-2~~--------------------|
A|----------------------------------------------2--------------------------|
E|-------------------------------------------------------------------------|

Then again, little bit different from last time
e|------------------------------------------------------------10--8--------|
H|--10---8-7-----7---8--7--------------10---8-7------7--8-7-7--------------|
G|-------------9-----------9--7--9~~--------------9------------------------|
D|-------------------------------------------------------------------------|
A|-------------------------------------------------------------------------|
E|-------------------------------------------------------------------------|

e|-------------------------------------------------------------------------|
H|--10---8-7-----7---8--7--------------10---8-7------7---8--7-7-10--12-----|
G|-------------9-----------9--7--9~~--------------9------------------------|
D|-------------------------------------------------------------------------|
A|-------------------------------------------------------------------------|
E|-------------------------------------------------------------------------|

e|------------------------------------------------------------10--8--------|
H|--10---8-7-----7---8--7--------------10---8-7------7--8-7-7--------------|
G|-------------9-----------9--7--9~~--------------9------------------------|
D|-------------------------------------------------------------------------|
A|-------------------------------------------------------------------------|
E|-------------------------------------------------------------------------|

e|------------------------------------------------------8~~--12--10--12~~--|
H|--10---8-7-----7---8--7--------------10---8-7------7--8~~--12--10--12~~--|
G|-------------9-----------9--7--9~~--------------9------------------------|
D|-------------------------------------------------------------------------|
A|-------------------------------------------------------------------------|
E|-------------------------------------------------------------------------|


e|----------------------12----12-----------------------|
H|----5---5----------12----12----12~~---------5---5----|
G|--4---4---4~~-----------------------------4---4---4~~|
D|-----------------------------------------------------|
A|-----------------------------------------------------|
E|-----------------------------------------------------|

Outro, play 8 times
e|-------------------------------------|
H|-------------------------------------|
G|-------------------------------------|
D|--2-2-2-2--2-2-2-2--2-2-2-2--2-3-2-0-|
A|--2-2-2-2--2-2-2-2--2-2-2-2--2-3-2-0-|
E|-------------------------------------|

Special note: Ending from live-DVD
e|-----12----12-------------------12----12--------------|
H|--12----12----12-------------12----12----12--------15-|
G|------------------12-14----------------------12-14----|
D|------------------------14----------------------------|
A|------------------------------------------------------|
E|------------------------------------------------------|

e|-----12----12---------------------12----12-------------|
H|--12----12----12---------------12----12----12----------|
G|-----------------12-11-------------------------14------|
D|-----------------------14-*12*----------------------14-|
A|-------------------------------------------------------|
E|-------------------------------------------------------|


Chords are approximately in place. You may want to hit G coming back from A to E 
in the main melody.





Comments


Popular Viikate tabs & chords
Oi Pimeys Chords
Hallamaatuska Tabs
Hautajaissydn Intro Tabs
Kivi Itkee Vihre Tabs
Kivi Itkee Vihreaa Tabs
Pohjoista Viljaa Tabs
Syys Tabs


Song lyrics



↑ Back to top | Tablatures and chords are parodies/interpretations of the original songs. You may use it for private study, scholarship, research or language learning purposes only
© 2014 AZChords.com Contact us | Privacy policy | DMCA | Add/correct tabs | Request tabs | Top 50 tabs