>
 >
Pohjoista Viljaa

Pohjoista Viljaa Guitar Tabs

Viikate - Pohjoista Viljaa chords, tabs, tablatures, lyrics

Guitar lessons | Add/correct | Request | Top 50 tabs Artists:  A B C D E F G H I J K L M N O P Q R S T U V W X Y Z 0-9

Pohjoista Viljaa Guitar Tabs – Viikate

CD, Sheet music, Poster

Do you like Pohjoista Viljaa? Share with your friends now
Tabs

Intro: (=chorus)
Am 			    G         F
I----------------------------------------------------------|
I-----10~-----8-----------------8--------------------------|
I-/9~-----9-9---9--9---9-----7~----7-9-10-9-9----10-9-7----|
I-------------------------10----------------------------10-|
I----------------------------------------------------------|
I----------------------------------------------------------|

   Am 			    G         F
I----------------------------------------------------------|
I-----10~-----8-----------------8--------------------------|
I---------9-9---9--9---9-----7~----7-9-10-9-9----10-9-7----|
I-7~----------------------10----------------------------10-|
I----------------------------------------------------------|
I----------------------------------------------------------|

   Am 			    G         F
I----------------------------------------------------------|
I-----10~-----8-----------------8--------------------------|
I---------9-9---9--9---9-----7~----7-9-10-9-9----10-9-7----|
I-7~----------------------10----------------------------10-|
I----------------------------------------------------------|
I----------------------------------------------------------|

   Am 			    G         F
I---------------------------------------------------------------------------------------|
I-----10~-----8-----------------8-------------------------------------------------------|
I---------9-9---9--9---9-----7~----7-9-10-9-9----7---------------------/7---7-7-7-5-4~--|
I-7~----------------------10-----------------------10-9----7~---------------------------|
I-------------------------------------------------------10------------------------------|
I---------------------------------------------------------------------------------------|

Verse 1

Am	    C	      	      G
Tuulesta kuuluu ei ole kaikki kohdal-

Am	     C      	     G
laan, yksi uupuu eikä oikein jaksa toinen-

Am		F	     C
kaan. kuuta vasten voi nähdä suden ulvo-

Am		 C		  G		    Dm
van, vaan ei aamukasteen nousevan lehtiin pihlajan

Am	     C	           G
Näitä minä mietin mietin kun katson ete-

Am	        C      	        G
lään, ei ydintalvet sielä kalistele peitsi-

Am	        F		 C
ään. eikä päivä paista, paista itseään häve-

Am	     C		   G		   Dm
ten, voi matalista vesistä päästä kävellen

	E7		F				E7
kävellen     vaan mepä käydään tulta kylväee-een

Chorus:
Am            G            F             Am
                Pohjoista  viljaa täällä taitetaan
G            F         Am
  Pohjoista  viljaa aa-aa
G            F             Am
  Pohjoista  viljaa täällä taitetaan

Verse 2
Am	   C	           G
kirkuvat linnut kiertävät kaata jääty-

Am	      C      	     G
vää, kevään silmut ne meillä silmuiksi myös

Am	   F		  C
jää. huutamalla voi saada kiven itke-

Am		   C		 G	     Dm
mään, vaan ei puhumalla toista anteeksi pyytämään

    E7		        F		   E7
pyytämään     ja niimpä meillä tulta kylvetää-ään

Chorus:
Am            G            F             Am
                Pohjoista  viljaa täällä taitetaan
G            F         Am
  Pohjoista  viljaa aa-aa
G            F             Am
  Pohjoista  viljaa täällä taitetaan
G            F             Am
  Pohjoista  viljaa täällä aina vaan

Bridge:

e|--------------|--------------|----------------|----------------|----------------|----------------|
H|--------------|66666666666666|55555555--------|----------------|----------------|----------------|
G|99999999999999|--------------|--------77777777|9999999999999999|5555555555555555|5555555555777777|
D|--------------|--------------|----------------|----------------|----------------|----------------|
A|--------------|--------------|----------------|----------------|----------------|----------------|
E|--------------|--------------|----------------|----------------|----------------|----------------|

e|--------------|--------------|----------------|----------------|----------------|----------------|----|
H|--------------|66666666666666|55555555--------|----------------|----------------|----------------|----|
G|99999999999999|--------------|--------77777777|9999999999999999|5555555555555555|5555555555444444|2---|
D|--------------|--------------|----------------|----------------|----------------|----------------|----|
A|--------------|--------------|----------------|----------------|----------------|----------------|----|
E|--------------|--------------|----------------|----------------|----------------|----------------|----|


Dm                E
Vaan saavat vielä uuden
F         E
Pohjoisen ikuisuuden
E7
Haaskalinnut saalistaa

Chorus: (two steppes upper this time, tab below.)


   Bm					A			G
e|----------------------------------------------------------------------|
H|------12~--------10---------------------------------------------------|
G|-/11~-----11-11-----11-11--11----9~---9-11-12-11-11----12-11-9--------|
D|------------------------------12-------------------------------12---9~|
A|----------------------------------------------------------------------|
E|----------------------------------------------------------------------|

Am           G            F                   Am
               Pohjoista  viljaa täällä taitetaan
G          F          Am
  Pohjoista viljaa aa-aa
G          F            Am
  Pohjoista viljaa aina vaan

Solo fades on at the last time

e|--------------------------|---------12--14-14/19\17--14--14-12--------------------------|
H|----------------10-----12-|-12--15-----------------------------15--14h15p14--12-----12--|
G|---------9--11------11----|-----------------------------------------------------14------|
D|--9--12-------------------|-------------------------------------------------------------|
A|--------------------------|-------------------------------------------------------------|
E|--------------------------|-------------------------------------------------------------|
                                                       F#5-E5-G5
e|---------12--14-14/19\17--14--14-12-----------------------------------|
H|-12--15-----------------------------15--14-15-14-----------------(12)-|
G|--------------------------------------------------14--11--9--12-------|
D|----------------------------------------------------------------------|
A|----------------------------------------------------------------------|
E|----------------------------------------------------------------------|

Then the song ends to chord Bm.





Comments


Popular Viikate tabs & chords
Oi Pimeys Chords
Hallamaatuska Tabs
Hautajaissydn Intro Tabs
Kivi Itkee Vihre Tabs
Kivi Itkee Vihreaa Tabs
Routaisten Peltojen Pehtoorit Tabs
Syys Tabs


Song lyrics



↑ Back to top | Tablatures and chords are parodies/interpretations of the original songs. You may use it for private study, scholarship, research or language learning purposes only
© 2014 AZChords.com Contact us | Privacy policy | DMCA | Add/correct tabs | Request tabs | Top 50 tabs