>
 >
Kivi Itkee Vihreaa

Kivi Itkee Vihreaa Guitar Tabs

Viikate - Kivi Itkee Vihreaa chords, tabs, tablatures, lyrics

Guitar lessons | Add/correct | Request | Top 50 tabs Artists:  A B C D E F G H I J K L M N O P Q R S T U V W X Y Z 0-9

Kivi Itkee Vihreaa Guitar Tabs – Viikate

CD, Sheet music, Poster

Do you like Kivi Itkee Vihreaa? Share with your friends now
Tabs
 --Viikate--
                                      Kivi itkee vihreää

Biisissä on kaksi kitaraa. Vire noku E. Paljon vibraa
Virheitä löytyy kosolti, mutta jotenkin näin se menee:


|----0----------------0---------0----------------0----------0------------------------------|
|------1---3--1--0------1---------1---3--1--0------1----------1---3--1--0--1--0--1-1--0--1-|
|--2----------------------2---2----------------------0---2---------------------------------|
|--2--------------------------2--------------------------2---------------------------------|
|--0--------------------------0--------------------------0---------------------------------|
|------------------------------------------------------------------------------------------|


 ------------------------|
 --1--0--1--3--1--0------| Sitten tulee jotain Am ja G juttua.
 --------------------2---|
 ------------------------|
 ------------------------|
 ------------------------|

|------------3----------------------3--------0----------3--1--0---------------------------|
|'-----1--3-----3--1----------1--3-----3--1----------1----------3--1-1--0--1--1--0--1--1--|
|----2----------------2-----2----------------------2--------------------------------------|
|--2----------------------2----------------------2----------------------------------------|
|'----------------------------------------------------------------------------------------|
|-----------------------------------------------------------------------------------------|

 --------------------|
 --0--1--3--1--0----'|
 -----------------2--|
 --------------------|
 -------------------'|
 --------------------|

|-----------------------------------3----3--5--7--8--10--8--7--8--5------------3---3--5--7-|
|-------------------------------------3------------------------------------------3---------|
|---------------------------------4------------------------------------------4-------------|
|--------------------------------5------------------------------------------5--------------|
|-----0--2-2p3h2----3--0--------5------------------------------------------5---------------|
|--3-------------3------------3------------------------------------------3-----------------|


 --8--10--8--7--8/12---------1--0--3--1--0----------------------------------------|
 -------------------------------------------3--1--3--5-5b-------------------------|
 ---------------------------------------------------------------------------------|
 ---------------------------------------------------------------------------------|
 ---------------------------------------------------------------------------------|
 ---------------------------------------------------------------------------------|


|-----------15-----------------------15-------12----------------15-13-12---------------------|
|-----13-15----15-13-----------13-15----15-13----15-13-------13----------15-13-13--12--13-13-|
|---14---------------14b-----14----------------------------14--------------------------------|
|-14-----------------------14----------------------------14----------------------------------|
|--------------------------------------------------------------------------------------------|
|--------------------------------------------------------------------------------------------|


 -----------------------------------------------15----------12------------|
 --12--13-13--12--13--15--13--12----------13-15----15-13-15----15-13-12---|
 --------------------------------14-----14--------------------------------|
 -------------------------------------14----------------------------------|
 -------------------------------------------------------------------------|
 -------------------------------------------------------------------------|


 ------------15-------12----------15-13-12---------------------------------|
 ------13-15----15-13----------13----------15-13-13--12--13-13--12--13-13--|
 ----14----------------------14--------------------------------------------|
 --14----------------------14----------------------------------------------|
 --------------------------------------------------------------------------|
 --------------------------------------------------------------------------|

 --------------------------|
 --12--13--15--13--12------|
 ---------------------14---|
 --------------------------|
 --------------------------|
 --------------------------|

|-----------------------------------3----3--5--7--8--10--8--7--8--5------------3---3--5--7-|
|-------------------------------------3------------------------------------------3---------|
|---------------------------------4------------------------------------------4-------------|
|--------------------------------5------------------------------------------5--------------|
|-----0--2-2p3h2----3--0--------5------------------------------------------5---------------|
|--3-------------3------------3------------------------------------------3-----------------|


 --8--10--8--7--8/12---------13--12--13--15--13--12--10--8--10--12-12b----13--12--10------|
 -----------------------------------------------------------------------------------------|
 -----------------------------------------------------------------------------------------|
 -----------------------------------------------------------------------------------------|
 -----------------------------------------------------------------------------------------|
 -----------------------------------------------------------------------------------------|

 --13--12--13--15--13--12--10--8--10--12-12b----15-15--17---13--12--13--15--13--12--10--8--|
 ------------------------------------------------------------------------------------------|
 ------------------------------------------------------------------------------------------|
 ------------------------------------------------------------------------------------------|
 ------------------------------------------------------------------------------------------|
 ------------------------------------------------------------------------------------------|

 --7--8--5---|
 ------------|
 ------------|
 ------------|
 ------------|
 ------------|

Lopetus
|---------------------------------------|
|--------1------------------1--0--------|
|--0--2---------------0--2-------0--2---|
|---------------------------------------|
|---------------------------------------|
|---------------------------------------|





Comments


Popular Viikate tabs & chords
Oi Pimeys Chords
Hallamaatuska Tabs
Hautajaissydn Intro Tabs
Kivi Itkee Vihre Tabs
Pohjoista Viljaa Tabs
Routaisten Peltojen Pehtoorit Tabs
Syys Tabs


Song lyrics



↑ Back to top | Tablatures and chords are parodies/interpretations of the original songs. You may use it for private study, scholarship, research or language learning purposes only
© 2014 AZChords.com Contact us | Privacy policy | DMCA | Add/correct tabs | Request tabs | Top 50 tabs