>
 >
Kivi Itkee Vihre

Kivi Itkee Vihre Guitar Tabs

Viikate - Kivi Itkee Vihre chords, tabs, tablatures, lyrics

Guitar lessons | Add/correct | Request | Top 50 tabs Artists:  A B C D E F G H I J K L M N O P Q R S T U V W X Y Z 0-9

Kivi Itkee Vihre Guitar Tabs – Viikate

CD, Sheet music, Poster

Do you like Kivi Itkee Vihre? Share with your friends now
Tabs
-------------------------------------------------------------------------------
                             Kivi itkee vihreää - Viikate
-------------------------------------------------------------------------------

Tuning: EADGBe

xxxxxxxxxxxxxxxxxxxxxxxxxxxxxxxxxxxxxxxxxxxxxxxxxxxxxxxxxxxxxxxxxxxxxxxxxxxxxx

e|----0-------------0------------0-------------0-----------------------------|
B|------1---3-1p0-----1------------1---3-1p0-----1---------------------------|
G|----------------------2--------------------------0-------------------------|
D|-2--------------2-----------2--------------2-------------------------------|
A|-0------2-------0-----------0------2-------3-------------------------------|
E|--------3--------------------------3---------------------------------------|

e|----0----------------------------------------------------------------------|
B|------1---3-1p0---1-0-1---1-0-1---1-0-1---3-1p0-1--------------------------|
G|------------------------------------------------2--------------------------|
D|--------0-------2-------3-------2-------0-------3--------------------------|
A|-0------1-------3-------------------------------3--------------------------|
E|--------3------------------------------------------------------------------|

xxxxxxxxxxxxxxxxxxxxxxxxxxxxxxxxxxxxxxxxxxxxxxxxxxxxxxxxxxxxxxxxxxxxxxxxxxxxxx

 Guitar 2 plays: Am G Am Am

 Guitar 1:

e|----------3---------------------3-----0------------------------------------|
B|------1-3---3-1-------------1-3---3-1--------------------------------------|
G|----2-----------2---------2------------------------------------------------|
D|-2---------------------2---------------------------------------------------|
A|---------------------------------------------------------------------------|
E|---------------------------------------------------------------------------|

e|-------3-1-0---------------------------------------------------------------|
B|-----1-------3-1-1-0-1---1-0-1--1-0-1-3--1-0-------------------------------|
G|---2-----------------------------------------2-----------------------------|
D|-2-------------------------------------------------------------------------|
A|---------------------------------------------------------------------------|
E|---------------------------------------------------------------------------|

 This part twice, the second time the timing is a little different

xxxxxxxxxxxxxxxxxxxxxxxxxxxxxxxxxxxxxxxxxxxxxxxxxxxxxxxxxxxxxxxxxxxxxxxxxxxxxx

                      * Guitar 2      *
e|--------------------*-----------3---*-----------7-8-10-8-7-8---------------|
B|--------------------*-------------3-*------8-10--------------10------------|
G|--------------------*---------4-----*--------------------------------------|
D|--------------------*-7\5----5------*--------------------------------------|
A|---0-2-2h3p2---3-0--*-7\5---5-------*--------------------------------------|
E|-0-----------3------*-5\3-3---------*--------------------------------------|

   * Guitar 2       *
e|-*------------3---*--------7-8-10-8-7-8-12---------------------------------|
B|-*--------------3-*---8-10-------------------------------------------------|
G|-*----------4-----*--------------------------------------------------------|
D|-*-7\5-----5------*--------------------------------------------------------|
A|-*-7\5----5-------*--------------------------------------------------------|
E|-*-5\3--3---------*--------------------------------------------------------|

xxxxxxxxxxxxxxxxxxxxxxxxxxxxxxxxxxxxxxxxxxxxxxxxxxxxxxxxxxxxxxxxxxxxxxxxxxxxxx


e|-1--0-1-3--1-0----------------------------------------------------------------|
B|----------------3-1-3-5--5br6-------------------------------------------------|
G|------------------------------------------------------------------------------|
D|------------------------------------------------------------------------------|
A|------------------------------------------------------------------------------|
E|------------------------------------------------------------------------------|

xxxxxxxxxxxxxxxxxxxxxxxxxxxxxxxxxxxxxxxxxxxxxxxxxxxxxxxxxxxxxxxxxxxxxxxxxxxxxx

e|--------------15-------------------------------15-------12-----------------|
B|--------13-15----15-13-------------------13-15----15-13-----15--13---------|
G|-----14----------------14-------------14-----------------------------------|
D|-14-------------------------------14---------------------------------------|
A|---------------------------------------------------------------------------|
E|---------------------------------------------------------------------------|

e|----------15-13-12---------------------------------------------------------|
B|-------13----------15-13-13-12-13--13-12-13--13-12-13-15--13-12------------|
G|----14----------------------------------------------------------14---------|
D|-14------------------------------------------------------------------------|
A|---------------------------------------------------------------------------|
E|---------------------------------------------------------------------------|


e|-------------15----------12-----------------------15-------12--------------|
B|-------13-15----15-13-15-----13--12---------13-15----15-13-----------------|
G|----14-----------------------------------14--------------------------------|
D|-14-----------------------------------14-----------------------------------|
A|---------------------------------------------------------------------------|
E|---------------------------------------------------------------------------|


e|----------15-13-12---------------------------------------------------------|
B|-------13----------15-13-13-12-13--13-12-13--13-12-13-15--13-12------------|
G|----14----------------------------------------------------------14---------|
D|-14------------------------------------------------------------------------|
A|---------------------------------------------------------------------------|
E|---------------------------------------------------------------------------|

xxxxxxxxxxxxxxxxxxxxxxxxxxxxxxxxxxxxxxxxxxxxxxxxxxxxxxxxxxxxxxxxxxxxxxxxxxxxxx

                      * Guitar 2      *
e|--------------------*-----------3---*-----------7-8-10-8-7-8---------------|
B|--------------------*-------------3-*------8-10--------------10------------|
G|--------------------*---------4-----*--------------------------------------|
D|--------------------*-7\5----5------*--------------------------------------|
A|---0-2-2h3p2---3-0--*-7\5---5-------*--------------------------------------|
E|-0-----------3------*-5\3-3---------*--------------------------------------|

   * Guitar 2       *
e|-*------------3---*--------7-8-10-8-7-8-12---------------------------------|
B|-*--------------3-*---8-10-------------------------------------------------|
G|-*----------4-----*--------------------------------------------------------|
D|-*-7\5-----5------*--------------------------------------------------------|
A|-*-7\5----5-------*--------------------------------------------------------|
E|-*-5\3--3---------*--------------------------------------------------------|


xxxxxxxxxxxxxxxxxxxxxxxxxxxxxxxxxxxxxxxxxxxxxxxxxxxxxxxxxxxxxxxxxxxxxxxxxxxxxx

e|-13--12h13-15--13-12-----------12--12br13---13-12--------------------------|
B|----------------------15-13-15--------------------15-----------------------|
G|---------------------------------------------------------------------------|
D|---------------------------------------------------------------------------|
A|---------------------------------------------------------------------------|
E|---------------------------------------------------------------------------|

e|-13--12h13-15--13-12-----------12--12br13---15-15-17-----------------------|
B|---------------------15-13-15----------------------------------------------|
G|---------------------------------------------------------------------------|
D|---------------------------------------------------------------------------|
A|---------------------------------------------------------------------------|
E|---------------------------------------------------------------------------|

e|-13--12h13-15--13-12-------------------------------------------------------|
B|-----------------------15-13-12-13--12-------------------------------------|
G|----------------------------------------14---------------------------------|
D|---------------------------------------------------------------------------|
A|---------------------------------------------------------------------------|
E|---------------------------------------------------------------------------|

xxxxxxxxxxxxxxxxxxxxxxxxxxxxxxxxxxxxxxxxxxxxxxxxxxxxxxxxxxxxxxxxxxxxxxxxxxxxxx

e|---------------------------------------------------------------------------|
B|-----1-----------1--0------------------------------------------------------|
G|-0-2---------0-2------0-2--------------------------------------------------|
D|---------------------------------------------------------------------------|
A|---------------------------------------------------------------------------|
E|---------------------------------------------------------------------------|

 Four times

xxxxxxxxxxxxxxxxxxxxxxxxxxxxxxxxxxxxxxxxxxxxxxxxxxxxxxxxxxxxxxxxxxxxxxxxxxxxxx

| /  slide up
| \  slide down
| h  hammer-on
| p  pull-off
| ~  vibrato
| +  harmonic
| x  Mute note
===============================================================================





Comments


Popular Viikate tabs & chords
Oi Pimeys Chords
Hallamaatuska Tabs
Hautajaissydn Intro Tabs
Kivi Itkee Vihreaa Tabs
Pohjoista Viljaa Tabs
Routaisten Peltojen Pehtoorit Tabs
Syys Tabs


Song lyrics



↑ Back to top | Tablatures and chords are parodies/interpretations of the original songs. You may use it for private study, scholarship, research or language learning purposes only
© 2014 AZChords.com Contact us | Privacy policy | DMCA | Add/correct tabs | Request tabs | Top 50 tabs