» » »

Video Games, User Name Tabs

Artists:  A B C D E F G H I J K L M N O P Q R S T U V W X Y Z # 

User Name Tabs

(ver. 1)
Video Games Tabs
 Rating:
4/5 (4 votes)
    User Name lessons Tabs too difficult? Try these video lessons and learn fast

WWW.AZCHORDS.COM | Video Games Tabs - User Name Tabs (ver. 1)


                user name


Game Boy camera






e:-------------------------------|
B:------------16--19-18-16-------|
G:-15--15-17---------------17-15-|
D:-------------------------------|
A:-------------------------------|
E:-------------------------------|

e:-------------------------------|
B:------------16--19-18-16-------|
G:-15--15-17---------------17-15-|
D:-------------------------------|
A:-------------------------------|
E:-------------------------------|

e:----------------------------|
B:----------------------------|
G:-------15h17----------------|
D:-15h17-------16-15----------|
A:-------------------18-15h18-|
E:----------------------------|

e:----------------------------|
B:----------------------------|
G:-------15h17----------------|
D:-15h17-------16-15----------|
A:-------------------18-15h18-|
E:----------------------------|
            
Submit corrections

↑ Back to top | Video Games Tabs for User Name. Lyrics for acoustic guitar and electric guitar. Tablatures and chords are parodies/interpretations of the original songs. You may use it for private study, scholarship, research or language learning purposes only