» » »

Sound Of Discovering Hidden Treasures Tabs (ver.1)

Artists:  A B C D E F G H I J K L M N O P Q R S T U V W X Y Z # 

Sound Of Discovering Hidden Treasures Tabs (ver.1)

Video Games
Rating:
0/5 (0 votes)

Tabs too difficult? Try these video lessons and learn fast.
                sound of discovering hidden treasures 


legend of zelda






e:--15-14----------------14-17--20--|
B:--------16-------14-17------------|
G:-----------14-15------------------|
D:----------------------------------|
A:----------------------------------|
E:----------------------------------|

e:--15-14----------------14-17--20--|
B:--------16-------14-17------------|
G:-----------14-15------------------|
D:----------------------------------|
A:----------------------------------|
E:----------------------------------|
            
Tabs too difficult? Try these video lessons and learn fast.


comments powered by Disqus
↑ Back to top | Tablatures and chords are parodies/interpretations of the original songs. You may use it for private study, scholarship, research or language learning purposes only