» » »

Sonic 2 - Casino Nights Tabs (ver.1)

Artists:  A B C D E F G H I J K L M N O P Q R S T U V W X Y Z # 

Sonic 2 - Casino Nights Tabs (ver.1)

Video Games
Rating:
0/5 (0 votes)

Hard to play? Try these video lessons and learn fast.
                sonic the hedgehog 2 for the megadrive
 casino nights - lead part(on guitar)


	~=tremolo (optional but it sounds better)
	p= pull off
	h= hammer on
    intro
E-----------------------------------
A-----------------------------------
D-----------------------------------
G----------------0-3-1-0------------
B----4-1-8-6-4-1--------------------
E-----------------------------------


verse
E---------------------------------------------------------------
A---------------------------------------------------------------
D---------------------------------------------------------------
G---------------------------------------------------------------
B--5-5-5~---5-6-5-----5~-------5-5-----5-1~--1-3-1-3h4-3-1~-----
E-----------------4-4--------------5-5--------------------------


chorus
E---------------------------------------------------------------
A---------------------------------------------------------------
D---------------------------------------------------------------
G---------------------------------------------------------------
B-5-6-5-----5~----------------8-5-1-3-4-6-4-6-8----------------- 
E-------4-4----5-5-7-5-8----5-----------------------------------


outro
E---------------------------------------------------------------
A---------------------------------------------------------------
D---------------------------------------------------------------
G---------------------------------------------------------------
B-5-6-5-----5~----------------8-5-1-3---8-5-1-3---8-5-1-3-1----- 
E-------4-4----5-5-7-5-8----5---------5---------5---------------


 order:
********
intro X1
verse X1
chorus X1
verse X1
outro X1

All repeat.

         keep on truckin
            
Hard to play? Try these video lessons and learn fast. | Correct




comments powered by Disqus
↑ Back to top | Tablatures and chords are parodies/interpretations of the original songs. You may use it for private study, scholarship, research or language learning purposes only