» » »

Song Of Time Tabs (ver.1)

Artists:  A B C D E F G H I J K L M N O P Q R S T U V W X Y Z # 

Song Of Time Tabs (ver.1)

Video Games
Rating:
0/5 (0 votes)

Tabs too difficult? Try these video lessons and learn fast.
                song of time

legend of zelda






e:-18------14--18------14---14--17--20-19--16------16--18---------------|
B:-----16----------16---------------------------19--------16------18-16-|
G:------------------------------------------------------------18--------|
D:----------------------------------------------------------------------|
A:----------------------------------------------------------------------|
E:----------------------------------------------------------------------|

:-18------14--18------14---14--17--20-19--16------16--18---------------|
B:-----16----------16---------------------------19--------16------18-16-|
G:------------------------------------------------------------18--------|
D:----------------------------------------------------------------------|
A:----------------------------------------------------------------------|
E:----------------------------------------------------------------------|
            
Tabs too difficult? Try these video lessons and learn fast.


comments powered by Disqus
↑ Back to top | Tablatures and chords are parodies/interpretations of the original songs. You may use it for private study, scholarship, research or language learning purposes only