» » »

Shoot Lets Play Tabs (ver.1)

Artists:  A B C D E F G H I J K L M N O P Q R S T U V W X Y Z # 

Shoot Lets Play Tabs (ver.1)

Video Games
Rating:
0/5 (0 votes)

Hard to play? Try these video lessons and learn fast.
                shoot, let's play


Game Boy camera






e:------------------------------------------------------|
B:-------------12--------------------------12-----------|
G:-------11/12-----12--11h12--------11/12-----12--11h12-|
D:----9--------------------------9----------------------|
A:-7--------------------------7-------------------------|
E:------------------------------------------------------|

e:------------7-----------------------7----------|
B:-------7--8---8--7-8-----------7--8---8--7-8---|
G:----4-----------------------4------------------|
D:-0-----------------------0---------------------|
A:-----------------------------------------------|
E:-----------------------------------------------|
            
Hard to play? Try these video lessons and learn fast. | Correct




comments powered by Disqus
↑ Back to top | Tablatures and chords are parodies/interpretations of the original songs. You may use it for private study, scholarship, research or language learning purposes only