» » »

Serenade Of Water Tabs (ver.1)

Artists:  A B C D E F G H I J K L M N O P Q R S T U V W X Y Z # 

Serenade Of Water Tabs (ver.1)

Video Games
Rating:
0/5 (0 votes)

Hard to play? Try these video lessons and learn fast.
                serenade of water


legend of zelda






e:----14--17-17--19-------|
B:-16---------------------|
G:------------------------|
D:------------------------|
A:------------------------|
E:------------------------|

    2 times
e:----14--17-17--19-------|
B:-16---------------------|
G:------------------------|
D:------------------------|
A:------------------------|
E:------------------------|

e:-17----14---16-14-----16---------|
B:----16-------------18-----20-----|
G:---------------------------------|
D:---------------------------------|
A:---------------------------------|
E:---------------------------------|
            
Hard to play? Try these video lessons and learn fast. | Correct




comments powered by Disqus
↑ Back to top | Tablatures and chords are parodies/interpretations of the original songs. You may use it for private study, scholarship, research or language learning purposes only