» » »

Self Timer Tabs (ver.1)

Artists:  A B C D E F G H I J K L M N O P Q R S T U V W X Y Z # 

Self Timer Tabs (ver.1)

Video Games
Rating:
0/5 (0 votes)

Hard to play? Try these video lessons and learn fast.
                self timer


Game Boy camera





GT1
e:------------------------------------------------------------------|
B:---------6-8--------------8-10----8-8-8-8--10-10-10-10--12-12--13-|
G:-9-9-7-9-------10-10-9-10-----------------------------------------|
D:------------------------------------------------------------------|
A:------------------------------------------------------------------|
E:------------------------------------------------------------------|

GT2
e:--------------------------------------------------------------------------------|
B:-----------------------6-8--------------8-10----8-8-8-8--10-10-10-10--12-12--13-|
G:---------------9-9-7-9-------10-10-9-10-----------------------------------------|
D:--------------------------------------------------------------------------------|
A:--------------------------------------------------------------------------------|
E:--------------------------------------------------------------------------------|
            
Hard to play? Try these video lessons and learn fast. | Correct




comments powered by Disqus
↑ Back to top | Tablatures and chords are parodies/interpretations of the original songs. You may use it for private study, scholarship, research or language learning purposes only