» » »

Saria´S Song Tabs (ver.1)

Artists:  A B C D E F G H I J K L M N O P Q R S T U V W X Y Z # 

Saria´S Song Tabs (ver.1)

Video Games
Rating:
0/5 (0 votes)

Hard to play? Try these video lessons and learn fast.
                saria's song


legend of zelda






e:---18-20----18-20----18-20--24-23--20-21-20--------------|
B:-19------19-------19-------------------------21--18~~~---|
G:---------------------------------------------------------|
D:---------------------------------------------------------|
A:---------------------------------------------------------|
E:---------------------------------------------------------|

e:---18-20----18-20----18-20--24-23--20-21-20--------------|
B:-19------19-------19-------------------------21--18~~~---|
G:---------------------------------------------------------|
D:---------------------------------------------------------|
A:---------------------------------------------------------|
E:---------------------------------------------------------|

e:---18-20----18-20----18-20--24-23--20-21-20--------------|
B:-19------19-------19-------------------------21--18~~~---|
G:---------------------------------------------------------|
D:---------------------------------------------------------|
A:---------------------------------------------------------|
E:---------------------------------------------------------|
            
Hard to play? Try these video lessons and learn fast. | Correct




comments powered by Disqus
↑ Back to top | Tablatures and chords are parodies/interpretations of the original songs. You may use it for private study, scholarship, research or language learning purposes only