» » »

Sample 3 Dj Game Tabs (ver.1)

Artists:  A B C D E F G H I J K L M N O P Q R S T U V W X Y Z # 

Sample 3 Dj Game Tabs (ver.1)

Video Games
Rating:
0/5 (0 votes)

Hard to play? Try these video lessons and learn fast.
                sample 3 DJ game


Game Boy camera






e:------------17--------------|
B:----------------------------|
G:----------------------------|
D:----------------------------|
A:-15--15-15---------13-13-15-|
E:----------------15----------|

e:------------17--------------|
B:----------------------------|
G:----------------------------|
D:----------------------------|
A:-15--15-15---------13-13-15-|
E:----------------15----------|

e:------------17--------------|
B:----------------------------|
G:----------------------------|
D:----------------------------|
A:-15--15-15---------13-13-15-|
E:----------------15----------|
            
Hard to play? Try these video lessons and learn fast. | Correct




comments powered by Disqus
↑ Back to top | Tablatures and chords are parodies/interpretations of the original songs. You may use it for private study, scholarship, research or language learning purposes only