» » »

Run Tabs (ver.1)

Artists:  A B C D E F G H I J K L M N O P Q R S T U V W X Y Z # 

Run Tabs (ver.1)

Video Games
Rating:
0/5 (0 votes)

Hard to play? Try these video lessons and learn fast.
                run


game Boy camera






e:-20p19p17-------------------------|
B:----------17-19--------17-19-17---|
G:----------------21--20------------|
D:----------------------------------|
A:----------------------------------|
E:----------------------------------|

e:-20p19p17-------------------------|
B:----------17-19-17-----17-19-17---|
G:--------------------19------------|
D:----------------------------------|
A:----------------------------------|
E:----------------------------------|
            
Hard to play? Try these video lessons and learn fast. | Correct




comments powered by Disqus
↑ Back to top | Tablatures and chords are parodies/interpretations of the original songs. You may use it for private study, scholarship, research or language learning purposes only