» » »

Rocketship Song Congratulations Tabs (ver.1)

Artists:  A B C D E F G H I J K L M N O P Q R S T U V W X Y Z # 

Rocketship Song Congratulations Tabs (ver.1)

Video Games
Rating:
0/5 (0 votes)

Hard to play? Try these video lessons and learn fast.
                rocketship song congratulations


tetris






e:-5-----5--7-----7-9------9-10-----10--7-----7-4-----4--|
B:-----5--------5--------5--------5-------5-------5------|
G:---6--------6--------6--------6-----------6-------6----|
D:-------------------------------------------------------|
A:-------------------------------------------------------|
E:-------------------------------------------------------|

e:-5-----5--7-----7-9------9-10-----10--7-----7-4-----4--|
B:-----5--------5--------5--------5-------5-------5------|
G:---6--------6--------6--------6-----------6-------6----|
D:-------------------------------------------------------|
A:-------------------------------------------------------|
E:-------------------------------------------------------|

e:-5-----5--7-----7-9------9-10-----10--7-----7-4-----4--|
B:-----5--------5--------5--------5-------5-------5------|
G:---6--------6--------6--------6-----------6-------6----|
D:-------------------------------------------------------|
A:-------------------------------------------------------|
E:-------------------------------------------------------|
            
Hard to play? Try these video lessons and learn fast. | Correct




comments powered by Disqus
↑ Back to top | Tablatures and chords are parodies/interpretations of the original songs. You may use it for private study, scholarship, research or language learning purposes only