» » »

Requiem Of Spirit Tabs (ver.1)

Artists:  A B C D E F G H I J K L M N O P Q R S T U V W X Y Z # 

Requiem Of Spirit Tabs (ver.1)

Video Games
Rating:
0/5 (0 votes)

Hard to play? Try these video lessons and learn fast.
                Requiem of spirit


legend of zelda






e:----14----18--14-----|
B:-16----16--------16--|
G:---------------------|
D:---------------------|
A:---------------------|
E:---------------------|

       2 times
e:----14----18--14---------|
B:-16----16--------16--16--|
G:-------------------------|
D:-------------------------|
A:-------------------------|
E:-------------------------|


e:-------------------------------|
B:-------------------------------|
G:----11----14--11-------11~~----|
D:-12----12---------12---12~~----|
A:-------------------------------|
E:-------------------------------|
            
Hard to play? Try these video lessons and learn fast. | Correct




comments powered by Disqus
↑ Back to top | Tablatures and chords are parodies/interpretations of the original songs. You may use it for private study, scholarship, research or language learning purposes only