» » »

Prelude Of Light Tabs (ver.1)

Artists:  A B C D E F G H I J K L M N O P Q R S T U V W X Y Z # 

Prelude Of Light Tabs (ver.1)

Video Games
Rating:
0/5 (0 votes)

Hard to play? Try these video lessons and learn fast.
                prelude of light


legend of zelda






e:-24-18--24-18-20--24----|
B:------------------------|
G:------------------------|
D:------------------------|
A:------------------------|
E:------------------------|


e:-24-18--24-18-20--24----|
B:------------------------|
G:------------------------|
D:------------------------|
A:------------------------|
E:------------------------|

e:-24-18--24-18-20--24----|
B:------------------------|
G:------------------------|
D:------------------------|
A:------------------------|
E:------------------------|

e:-------------|
B:-------------|
G:-8---8----7--|
D:-x---x----x--|
A:-6---6----5--|
E:-------------|

e:-------------------------20--22--24-|
B:-------------------19-22---------24-|
G:-------------17-19------------------|
D:-------16-18------------------------|
A:-16-18------------------------------|
E:------------------------------------|
            
Hard to play? Try these video lessons and learn fast. | Correct




comments powered by Disqus
↑ Back to top | Tablatures and chords are parodies/interpretations of the original songs. You may use it for private study, scholarship, research or language learning purposes only