» » »

Video Games, Nocturne Of Shadow Tabs (ver.1)

Artists:  A B C D E F G H I J K L M N O P Q R S T U V W X Y Z # 

Nocturne Of Shadow Tabs (ver.1)

Video Games Tabs
 Rating:
4/5 (4 votes)
Nocturne Of Shadow lessons Tabs too difficult? Try these video lessons and learn fast
                nocturne of shadow


legend of zelda






e:-19--17-17-----19-17----|
B:-----------16--------19-|
G:------------------------|
D:------------------------|
A:------------------------|
E:------------------------|


e:-19--17-17-----19-17----|
B:-----------16--------19-|
G:------------------------|
D:------------------------|
A:------------------------|
E:------------------------|

e:-----------------------------------------------------|
B:---------------------------21--19-19-----21-19-18~~--|
G:--14--12-12------14--12--------------18--------------|
D:-------------12--------------------------------------|
A:-----------------------------------------------------|
E:-----------------------------------------------------|
            
Submit corrections

comments powered by Disqus
↑ Back to top | Video Games Tabs for Nocturne Of Shadow. Lyrics for acoustic guitar and electric guitar. Tablatures and chords are parodies/interpretations of the original songs. You may use it for private study, scholarship, research or language learning purposes only