» » »

Music Type A Tabs (ver.1)

Artists:  A B C D E F G H I J K L M N O P Q R S T U V W X Y Z # 

Music Type A Tabs (ver.1)

Video Games
Rating:
0/5 (0 votes)

Hard to play? Try these video lessons and learn fast.
                music type A Game Boy


tetris






e:-12---------------------------------12--------------------12--------------13-17--15-13-12|
B:----12-13-15-1515--13--12--------13----15-13-12--12-13-15----13--------15----------------|
G:--------------------------14--14--------------------------------14-14--------------------|
D:-----------------------------------------------------------------------------------------|
A:-----------------------------------------------------------------------------------------|
E:-----------------------------------------------------------------------------------------|

e:----12--------------------12-----------|
B:-13----15-13-12--12-13-15----13--------|
G:--------------------------------14-14--|
D:---------------------------------------|
A:---------------------------------------|
E:---------------------------------------|

e:-12---------------------------------12--------------------12--------------13-17--15-13-12|
B:----12-13-15-1515--13--12--------13----15-13-12--12-13-15----13--------15----------------|
G:--------------------------14--14--------------------------------14-14--------------------|
D:-----------------------------------------------------------------------------------------|
A:-----------------------------------------------------------------------------------------|
E:-----------------------------------------------------------------------------------------|

e:----12--------------------12-----------|
B:-13----15-13-12--12-13-15----13--------|
G:--------------------------------14-14--|
D:---------------------------------------|
A:---------------------------------------|
E:---------------------------------------|


e:-----------------------------------------------------|
B:-----------------------------------------------------|
G:-----------------------------------------------------|
D:-14-14---------12-12--------10-10--------------------|
A:--------15-15--------14-14--------12-12--11-/-12-----|
E:-----------------------------------------------------|

e:-----------------------------------------------------|
B:----------------------------------10--9~~~-----------|
G:--------------------------------9--------------------|
D:-14-14---------12-12--------10-----------------------|
A:--------15-15--------14-14---------------------------|
E:-----------------------------------------------------|
            
Hard to play? Try these video lessons and learn fast. | Correct




comments powered by Disqus
↑ Back to top | Tablatures and chords are parodies/interpretations of the original songs. You may use it for private study, scholarship, research or language learning purposes only