» » »

Minuet Of Forest Tabs (ver.1)

Artists:  A B C D E F G H I J K L M N O P Q R S T U V W X Y Z # 

Minuet Of Forest Tabs (ver.1)

Video Games
Rating:
0/5 (0 votes)

Hard to play? Try these video lessons and learn fast.
                minuet of forest


legend of zelda






e:-----22--19--17-19-17-|
B:-16-------------------|
G:----------------------|
D:----------------------|
A:----------------------|
E:----------------------|


e:-----22--19--17-19-17-|
B:-16-------------------|
G:----------------------|
D:----------------------|
A:----------------------|
E:----------------------|

e:-------------------------------------|
B:-----11--9-10--9h10p9----9---5~~~----|
G:--9-------------------11-----4~~~----|
D:-----------------------------6~~~----|
A:-------------------------------------|
E:-------------------------------------|
            
Hard to play? Try these video lessons and learn fast. | Correct




comments powered by Disqus
↑ Back to top | Tablatures and chords are parodies/interpretations of the original songs. You may use it for private study, scholarship, research or language learning purposes only