» » »

Menu Tabs (ver.1)

Artists:  A B C D E F G H I J K L M N O P Q R S T U V W X Y Z # 

Menu Tabs (ver.1)

Video Games
Rating:
0/5 (0 votes)

Tabs too difficult? Try these video lessons and learn fast.
                menu


Game Boy camera






e:-14------12--------12-15-|
B:----15------13--13-------|
G:-------------------------|
D:-------------------------|
A:-------------------------|
E:-------------------------|

e:-----------------------------------------------------------------------------------------|
B:-----------------------------------------------------------------------------------------|
G:-----------------------------------------------------------------------------------------|
D:-----------------------------------------------------------------------------------------|
A:---------------5-5-------------------5-5-------------------5-5------------------5-5------|
E:-3--0-3-0-3-0------5---3--0-3-0-3-0------5---3--0-3-0-3-0------5---3--0-3-0-3-0------5---|
            
Tabs too difficult? Try these video lessons and learn fast.




comments powered by Disqus
↑ Back to top | Tablatures and chords are parodies/interpretations of the original songs. You may use it for private study, scholarship, research or language learning purposes only