» » »

Credits Tabs

Artists:  A B C D E F G H I J K L M N O P Q R S T U V W X Y Z # 

Credits Tabs

(ver. 1)
Video Games Tabs
 Rating:
4/5 (4 votes)
    Credits lessons Tabs too difficult? Try these video lessons and learn fast
                credits


game Boy camera






e:--------------------------13-----------------------15-----------------15-|
B:-15-13-15-----------------------15-13--15--13-------------15--13---------|
G:----------15-14----12-15-----15----------------15------12---------15-----|
D:----------------15-------------------------------------------------------|
A:-------------------------------------------------------------------------|
E:-------------------------------------------------------------------------|

e:-------------15--------------15-|
B:----15-13-----------15-13-------|
G:-12-------15-----12-------15----|
D:--------------------------------|
A:--------------------------------|
E:--------------------------------|
            
Submit corrections

↑ Back to top | Video Games Tabs for Credits. Lyrics for acoustic guitar and electric guitar. Tablatures and chords are parodies/interpretations of the original songs. You may use it for private study, scholarship, research or language learning purposes only