» » »

Video Games, Bolero Fire Tabs (ver.1)

Artists:  A B C D E F G H I J K L M N O P Q R S T U V W X Y Z # 

Bolero Fire Tabs (ver.1)

Video Games Tabs
 Rating:
4/5 (4 votes)
Bolero Fire lessons Tabs too difficult? Try these video lessons and learn fast
                Bolero of fire 


legend of zelda






e:-14----14-------17----17------------------|
B:----16----16-------19----19---------------|
G:------------------------------------------|
D:------------------------------------------|
A:------------------------------------------|
E:------------------------------------------|

e:-14----14-------17----17--------3---3-----6----6-----5---5----8----8------14----14----|
B:----16----16-------19----19-------5---5------8---8-----7---7----10---10------16----16-|
G:--------------------------------------------------------------------------------------|
D:--------------------------------------------------------------------------------------|
A:--------------------------------------------------------------------------------------|
E:--------------------------------------------------------------------------------------|

e:-17----17------15----15-----13----13-----------------|
B:----19----19------16----16-----15--------------------|
G:---------------------------------------11-10---7-----|
D:----------------------------------------x--x---x-----|
A:----------------------------------------9--8---5-----|
E:-----------------------------------------------------|
            
Submit corrections

comments powered by Disqus
↑ Back to top | Video Games Tabs for Bolero Fire. Lyrics for acoustic guitar and electric guitar. Tablatures and chords are parodies/interpretations of the original songs. You may use it for private study, scholarship, research or language learning purposes only