» » »

Animation #14 Tabs (ver.14)

Artists:  A B C D E F G H I J K L M N O P Q R S T U V W X Y Z # 

Animation #14 Tabs (ver.14)

Video Games
Rating:
0/5 (0 votes)

Hard to play? Try these video lessons and learn fast.
                animation #6


Game Boy camera






e:-----------------17-17--14-14------------------17-17-15-15------------------19-19-------|
B:---------------------------------------------------------------------12-12--------20-20-|
G:-------11-14-14---------------------11-14-14-----------------------9--------------------|
D:-12-12------------------------12-12--------------------------11-11----------------------|
A:----------------------------------------------------------------------------------------|
E:----------------------------------------------------------------------------------------|

e:----------------19-19---------------------10---22-22--------------------10---22-22--19-19|
B:---------12-12--------19-19------------10------------22-22-----------10------------------|
G:-------9----------------------------11----------------------------11---------------------|
D:-11-11------------------------12-12-------------------------12-12------------------------|
A:-----------------------------------------------------------------------------------------|
E:-----------------------------------------------------------------------------------------|

e:-------7-7-------14-------------7------------|
B:-----8-----9-10-----15-----7------10---------|
G:-9-9-------------------14-----9--------7~~~~-|
D:---------------------------------------------|
A:---------------------------------------------|
E:---------------------------------------------|
            
Hard to play? Try these video lessons and learn fast. | Correct




comments powered by Disqus
↑ Back to top | Tablatures and chords are parodies/interpretations of the original songs. You may use it for private study, scholarship, research or language learning purposes only