» » »

Animation #14 Tabs (ver.10)

Artists:  A B C D E F G H I J K L M N O P Q R S T U V W X Y Z # 

Animation #14 Tabs (ver.10)

Video Games
Rating:
0/5 (0 votes)

Hard to play? Try these video lessons and learn fast.
                animation #31


Game Boy camera






e:-------------------------|
B:----19-17-19----19----19-|
G:-16----------19----18----|
D:-------------------------|
A:-------------------------|
E:-------------------------|

e:-------------------------|
B:----19-17-19----19----19-|
G:-16----------19----18----|
D:-------------------------|
A:-------------------------|
E:-------------------------|

e:-------------------------|
B:----19-17-19----19----19-|
G:-16----------19----18----|
D:-------------------------|
A:-------------------------|
E:-------------------------|
            
Hard to play? Try these video lessons and learn fast. | Correct




comments powered by Disqus
↑ Back to top | Tablatures and chords are parodies/interpretations of the original songs. You may use it for private study, scholarship, research or language learning purposes only