» » »

Animation #14 Tabs (ver.9)

Artists:  A B C D E F G H I J K L M N O P Q R S T U V W X Y Z # 

Animation #14 Tabs (ver.9)

Video Games
Rating:
0/5 (0 votes)

Hard to play? Try these video lessons and learn fast.
                animation #27


Game Boy camera






e:-------------------------------|
B:------------16--19-18-16-------|
G:-15--15-17---------------17-15-|
D:-------------------------------|
A:-------------------------------|
E:-------------------------------|

e:-------------------------------|
B:------------16--19-18-16-------|
G:-15--15-17---------------17-15-|
D:-------------------------------|
A:-------------------------------|
E:-------------------------------|

e:----------------------------|
B:----------------------------|
G:-------15h17----------------|
D:-15h17-------16-15----------|
A:-------------------18-15h18-|
E:----------------------------|

e:----------------------------|
B:----------------------------|
G:-------15h17----------------|
D:-15h17-------16-15----------|
A:-------------------18-15h18-|
E:----------------------------|
animation #27


Game Boy camera






e:-------------------------------|
B:------------16--19-18-16-------|
G:-15--15-17---------------17-15-|
D:-------------------------------|
A:-------------------------------|
E:-------------------------------|

e:-------------------------------|
B:------------16--19-18-16-------|
G:-15--15-17---------------17-15-|
D:-------------------------------|
A:-------------------------------|
E:-------------------------------|

e:----------------------------|
B:----------------------------|
G:-------15h17----------------|
D:-15h17-------16-15----------|
A:-------------------18-15h18-|
E:----------------------------|

e:----------------------------|
B:----------------------------|
G:-------15h17----------------|
D:-15h17-------16-15----------|
A:-------------------18-15h18-|
E:----------------------------|
            
Hard to play? Try these video lessons and learn fast. | Correct




comments powered by Disqus
↑ Back to top | Tablatures and chords are parodies/interpretations of the original songs. You may use it for private study, scholarship, research or language learning purposes only