» » »

Animation #14 Tabs (ver.6)

Artists:  A B C D E F G H I J K L M N O P Q R S T U V W X Y Z # 

Animation #14 Tabs (ver.6)

Video Games
Rating:
0/5 (0 votes)

Hard to play? Try these video lessons and learn fast.
                animation #13


Game Boy camera






e:--------------------------------------------11-11-11---------------------------------|
B:-8-8-8-------------------8-8-8----9-9-9-8-------------13-----------------------------|
G:--------8---10-10-10--7--------8---------------------------10-10-10------13-13-13-12-|
D:--------------------------------------------------------------------12---------------|
A:-------------------------------------------------------------------------------------|
E:-------------------------------------------------------------------------------------|

e:---------------15-15-13-----13-15---13-----13-15---13----------15~~---------|
B:-15-15-15-12------------16-------------16-------------16---13---------------|
G:----------------------------------------------------------------------------|
D:----------------------------------------------------------------------------|
A:----------------------------------------------------------------------------|
E:----------------------------------------------------------------------------|
            
Hard to play? Try these video lessons and learn fast. | Correct




comments powered by Disqus
↑ Back to top | Tablatures and chords are parodies/interpretations of the original songs. You may use it for private study, scholarship, research or language learning purposes only