» » »

Sacred Place Bass tabs (ver.1)

Artists:  A B C D E F G H I J K L M N O P Q R S T U V W X Y Z # 

Sacred Place Bass tabs (ver.1)

Victor Wooten
Rating:
0/5 (0 votes)

Hard to play? Try these video lessons and learn fast.
                Tuning: A,D,G,C.

C--14-14--15--------14-14--12---///10-----10-10--8----7-7--5----7----|
G--14-14--15--------14-14--12---///10-----10-10--8----7-7--5----7----|
D--------------------------------------------------------------------|
A--------------------------------------------------------------------|


C--14-14--15--------14-14--12---///10-----10-10--8----8-8--7----5----|
G--14-14--15--------14-14--12---///10-----10-10--8----8-8--7----5----|
D--------------------------------------------------------------------|
A--------------------------------------------------------------------|

And of course the very last line is....

C--14-14--15--------14-14--12---///10-----10-10--8----8-8--7~~~~~~~--~~|
G--14-14--15--------14-14--12---///10-----10-10--8----8-8--7~~~~~~~--~~|
D--------------------------------------------------------------------~~|
A--------------------------------------------------------------------~~|

the ~~~~~~~~ means to let it ring.
            
Hard to play? Try these video lessons and learn fast. | Correct




comments powered by Disqus
↑ Back to top | Tablatures and chords are parodies/interpretations of the original songs. You may use it for private study, scholarship, research or language learning purposes only