» » »

Me And My Bass Bass tabs (ver.1)

Artists:  A B C D E F G H I J K L M N O P Q R S T U V W X Y Z # 

Me And My Bass Bass tabs (ver.1)

Victor Wooten
Rating:
3/5 (10 votes)

Hard to play? Try these video lessons and learn fast.
                (Guitar)
                        ME AND MY BASS GUITAR (Bassline)
                          As recorded by Victor Wooten
                      (From the 1996 Album A SHOW OF HANDS)

Music by Victor Wooten

Gtr I (E A D G) - 'Untitled'

 Intro
  Q=125
 4/4
  Gtr I
  Q  E S S E E E S S   E E E. S E E E  E   E E E. S E E E E
|--------x-x-x-x-x-x-|-x---x--x-x-x-x----|-x---x--x-x-x-x-x-|
|--------x-x-x-x-x-x-|-x---x--x-x-x-x--x-|-x---x--x-x-x-x-x-|
|--------x-x-x-x-x-x-|-9---x--x-x-x-x-10-|-x---x--x-x-x-x-x-|
|--------x-x-x-x-x-x-|-x---x--x-x-x-x--x-|-x---x--x-x-x-x-x-|


                            |-3-|
  E E E. S E E E  E   E E E T T T S E E E E   E E E. S E E E  E
|-x---x--x-x---x----|-x---x-x-------x-x-x-x-|-x---x--x-x---x----|
|-x---x--x-x---x--x-|-x---x---x-----x-x-x-x-|-x---x--x-x---x--x-|
|-9---x--x-x---x-10-|-x---x-----x---x-x-x-x-|-9---x--x-x---x-10-|
|-x---x--x-x---x--x-|-x---x-------x-x-x-x-x-|-x---x--x-x---x--x-|


                                                          T
  E E E. S E E E  E   E E E S S E E E  E   E E E  Q  E E  e
|-x---x--x-x-x-x--x-|-x-x-x---x-x-x-x--x-|---x-x--x--x-x-23--|
|-x---x--x-x-x-x--x-|-x-x-x---x-x-x-x--x-|---x-x--x--x-x-----|
|-x---x--x-x-x-x-11-|-x-x-x---x-x-x-x-12-|---x-x-13--x-x-----|
|-x---x--x-x-x-x--x-|-x-x-x---x-x-x-x--x-|---x-x--x--x-x-----|


 Main Groove
   S S S  S S S  S S  S S S  S S  S  E    S S S  S S S  S S  S S S  S S  S  E
|------x------x-----------x------------|------x------x-----------x-------------|
|--------h6-x---h7-x-------------------|--------h6-x---h7-x--------------------|
|--------------------h7-x------x-h5----|--------------------h7-x------x-h5-----|
|-h7-x----------------------h5------h6-|-h7-x----------------------h5------h6--|


                                                                        T
   S S S  S S S  S S  S S S  S S  S  E    S S S  S S S  S S  S S S  E.  e
|------x------x-----------x------------|------x------x-----------x-----23-|
|--------h6-x---h7-x-------------------|--------h6-x---h7-x---------------|
|--------------------h7-x------x-h5----|--------------------h7-x----------|
|-h7-x----------------------h5------h6-|-h7-x----------------------h5-----|


   Main Groove - Tapping
     E S  S S S  S S  S S S  S S  S  E    E S  S S S  S S  S S S  S S  S  E
||--19--------x-----------x------------|-16--------x-----------x------------|
||o-19---h6-x---h7-x-------------------|-16---h6-x---h7-x-------------------|
||o------------------h7-x------x-h5----|------------------h7-x------x-h5----|
||--h7----------------------h5------h6-|-h7----------------------h5------h6-|


   E S  S  S S  S S  S S S  S S  S  E    E S  S S S  S S  S S S  S S  S  E
|-19------19-x-----------x------------|-16--------x-----------x------------|
|-19---h6-19---h7-x-------------------|-16---h6-x---h7-x-------------------|
|-------------------h7-x------x-h5----|------------------h7-x------x-h5----|
|-h7-----------------------h5------h6-|-h7----------------------h5------h6-|


   E S  S S S  S S  S S S  S S  S  E    E S  S S S  S S  S S S  S S  S  E
|-19--------x-----------x------------|-16--------x-----------x------------|
|-19---h6-x---h7-x-------------------|-16---h6-x---h7-x-------------------|
|------------------h7-x------x-h5----|------------------h7-x------x-h5----|
|-h7----------------------h5------h6-|-h7----------------------h5------h6-|


                                       Vamp to Chorus
   E S  S  S S  S S  S S S  S S  S  E    E S  S S S  S S  S S S  S S S  E
|-19------19-x-----------x------------|-16--------x-----------x------x----|
|-19---h6-19---h7-x-------------------|-16---h6-x---h7-x------------------|
|-------------------h7-x------x-h5----|------------------h7-x-------------|
|-h7-----------------------h5------h6-|-h7----------------------h5-x---h4-|


 Chorus
                                                                          ~~
   S S S  S S S  S S  S S S  S S  S  S S    S S S S S  S  S S  E E T T S  E
|------4-h7---4-----------2--------------|--------4--------------4-----------|
|---------------------------h4-x---------|------5------------------4S5S4-----|
|--------------------------------h4----x-|----------0-h5-----------------h5--|
|-h3-x------x---h3-x-h2-x-----------h2---|-h3-0----------h3-0-h2-------------|


                                     ~~
   S S S  S S S  S S  S S S  S S  S  E   S S  S  S S  S  S  S T  T  +E. E E
|------4-h7---4-----------2------------|----------------------5S=6--(6)-x---|
|---------------------------h4-x-------|-----------7----------6S=7--(7)-x---|
|--------------------------------h4----|---7Sh8Sh9---h9Sh7Sh5-0-(0)-(0)-x-5-|
|-h3-x------x---h3-x-h2-x-----------h2-|-x------------------------------x---|


                            ~~
  E E E S  S +S  S  S  S S  E S
|---7-------------------------x-|
|---7------------7-h9-h9-7-h9---|
|-----x-6-h7-(7)----------------|
|-7-----------------------------|


                                                                      ~
   S S S  S S S  S S  S S S  S S  S  E   E S  S S  S S  S S  S  S S S E S
|------x------x-----------x------------|---6Sh7---------------------------|
|--------h6-x---h7-x-------------------|---6Sh7-x-----------h7-h9-9-7-9---|
|--------------------h7-x------x-h5----|----------h6-6-h7-7-------------9-|
|-h7-x----------------------h5------h6-|-7--------------------------------|


                                                                      ~
   S S S  S S S  S S  S S S  S S  S  E   E S  S S  S S  S S  S  S S S E S
|------x------x-----------x------------|---6Sh7---------------------------|
|--------h6-x---h7-x-------------------|---6Sh7-x-----------h7-h9-9-7-9---|
|--------------------h7-x------x-h5----|----------h6-6-h7-7-------------9-|
|-h7-x----------------------h5------h6-|-7--------------------------------|


                                                                      ~
   S S S  S S S  S S  S S S  S S  S  E   E S  S S  S S  S S  S  S S S E S
|------x------x-----------x------------|---6Sh7---------------------------|
|--------h6-x---h7-x-------------------|---6Sh7-x-----------h7-h9-9-7-9---|
|--------------------h7-x------x-h5----|----------h6-6-h7-7-------------9-|
|-h7-x----------------------h5------h6-|-7--------------------------------|


   S S S  S S S  S S  S S S  E E S
|------x------x-----------x---------||
|--------h6-x---h7-x---------------o||
|--------------------h7-x----------o||
|-h7-x----------------------h5---x--||


    S S S S E E S S S S S E  S  7x S S S E S E S   S   S  S   S   E S
||------------x-------------h4--||-----------x-x-h20------------------|
||o-------7---------------7----o||-------7---x-0-----h19----h19-------|
||o----------------------------o||-----------x-0----------------h18---|
||--5-5-5---x---x-x-5-5-7-------||-5-5-5-----x-x---------h5-----------|


     S  S  S S  E  S  S  S  S  E  S S  E  8x
||-----------7-19----------------19-7-----||
||o----------7----------------------7----o||
||o-21-19-21------21-19-21-19-21------21-o||
||---7-------------5-----------5----------||


  E E E. S E E E  E   E E E. S E E E E
|-x---x--x-x-x-x----|-x---x--x-x-x-x-x-|
|-x---x--x-x-x-x--x-|-x---x--x-x-x-x-x-|
|-9---x--x-x-x-x-10-|-x---x--x-x-x-x-x-|
|-x---x--x-x-x-x--x-|-x---x--x-x-x-x-x-|


                            |-3-|
  E E E. S E E E  E   E E E T T T S E E E E   E E E. S E E E  E
|-x---x--x-x---x----|-x---x-x-------x-x-x-x-|-x---x--x-x---x----|
|-x---x--x-x---x--x-|-x---x---x-----x-x-x-x-|-x---x--x-x---x--x-|
|-9---x--x-x---x-10-|-x---x-----x---x-x-x-x-|-9---x--x-x---x-10-|
|-x---x--x-x---x--x-|-x---x-------x-x-x-x-x-|-x---x--x-x---x--x-|


                                                          T
  E E E. S E E E  E   E E E S S E E E  E   E E E  Q  E E  e
|-x---x--x-x-x-x--x-|-x-x-x---x-x-x-x--x-|---x-x--x--x-x-23--|
|-x---x--x-x-x-x--x-|-x-x-x---x-x-x-x--x-|---x-x--x--x-x-----|
|-x---x--x-x-x-x-11-|-x-x-x---x-x-x-x-12-|---x-x-13--x-x-----|
|-x---x--x-x-x-x--x-|-x-x-x---x-x-x-x--x-|---x-x--x--x-x-----|


   S S S  S S S  S S  S S S  S S  S  E    S S S  S S S  S S  S S S  S S  S  E
|------x------x-----------x------------|------x------x-----------x-------------|
|--------h6-x---h7-x-------------------|--------h6-x---h7-x--------------------|
|--------------------h7-x------x-h5----|--------------------h7-x------x-h5-----|
|-h7-x----------------------h5------h6-|-h7-x----------------------h5------h6--|


   S T T S  S T T S  T T T T  S T T S  S T T S  T T T T
|--------x------x-x------x-x--------x--------x--------x-|
|------x---h6-x-----h7-x----------x--------x--------x---|
|----------------------------h7-x-----------------------|
|-h7-x--------------------------------h5-x-----h6-x-----|


   S T T S  S T T S  T T T T  Q   Q
|--------x------x-x------x-x------x--|
|------x---h6-x-----h7-x----------x--|
|----------------------------h7\--x--|
|-h7-x----------------------------x--|


                                ~
   E S  S S  S S  S S  S  S S S E S
|----6Sh7---------------------------|
|----6Sh7-x-----------h7-h9-9-7-9---|
|-----------h6-6-h7-7-------------9-|
|-h7--------------------------------|


                                                                        ~
     S S S  S S S  S S  S S S  S S  S  E   E S  S S  S S  S S  S  S S S E S   8x
||-------x------x-----------x------------|---6Sh7-----------------------------||
||o--------h6-x---h7-x-------------------|---6Sh7-x-----------h7-h9-9-7-9----o||
||o--------------------h7-x------x-h5----|----------h6-6-h7-7-------------9--o||
||--h7-x----------------------h5------h6-|-7----------------------------------||


     E S  S E S  S S  S  E E E    S S S  S S S S  S S  S  E E E   8x
||-----6Sh7----------------7---|------x------x--------------7-----||
||o----6Sh7----------------7---|--------h6-x----------------7----o||
||o-----------7-h5-------------|---------------7-h5--------------o||
||--h7------x------x-h5-h4---5-|-h7-x---------------x-h7-h5---5---||


                            ~
  E S  S E S  S S S E E E   Q   H.
|---6Sh7------------------|-7--\x-----*|
|---6Sh7------------------|-9--\x-----*|
|----------7-h5-----------|-0--\x-----*|
|-7------x------x-5-4-5-6-|-7--\x-----*|


Duration Legend
---------------
W - whole; H - half; Q - quarter; E - 8th; S - 16th; T - 32nd; X - 64th; a - acciaccatura
+ - note tied to previous; . - note dotted; .. - note double dotted
Uncapitalized letters represent notes that are staccato (1/2 duration)
Irregular groupings are notated above the duration line
Duration letters will always appear directly above the note/fret number it represents the
duration for.  Duration letters with no fret number below them represent rests.  Multi-
bar rests are notated in the form Wxn, where n is the number of bars to rest for.  Low
melody durations appear below the staff

Tablature Legend
----------------
 h   - hammer-on
 p   - pull-off
 b   - bend
 pb  - pre-bend
 r   - bend release (if no number after the r, then release immediately)
 /\  - slide into or out of (from/to "nowhere")
 s   - legato slide
 S   - shift slide
  - natural harmonic
[n]  - artificial harmonic
n(n) - tapped harmonic
 ~   - vibrato
 tr  - trill
 T   - tap
 TP  - trem. picking
 PM  - palm muting
\n/  - tremolo bar dip; n = amount to dip
 \n  - tremolo bar down
 n/  - tremolo bar up
/n\  - tremolo bar inverted dip
 =   - hold bend; also acts as connecting device for hammers/pulls
 <>  - volume swell (louder/softer)
 x   - on rhythm slash represents muted slash
 o   - on rhythm slash represents single note slash

Misc Legend
-----------
 |  - bar
||  - double bar
||o - repeat start
o|| - repeat end
*|  - double bar (ending)
 :  - bar (freetime)
 $  - Segno
 &  - Coda
Tempo markers -  = BPM(8/16=s8/s16), where s8 = swing 8ths, s16 = swing 16ths
            
Hard to play? Try these video lessons and learn fast. | Correct




comments powered by Disqus
↑ Back to top | Tablatures and chords are parodies/interpretations of the original songs. You may use it for private study, scholarship, research or language learning purposes only