» » »

Victor Wooten, Joe's Journey Bass tabs (ver.1)

Artists:  A B C D E F G H I J K L M N O P Q R S T U V W X Y Z # 

Joe's Journey Bass tabs (ver.1)

Victor Wooten Tabs
Rating:
0/5 (0 votes)
Joe's Journey lessons Tabs too difficult? Try these video lessons and learn fast
                Victor Wooten – Joes Journey
5 string (tuning, B, E, A, D, G)

Sorry I only have 30 seconds of the song tabbed because that’s all I have. If I get the CD I’ll tab it all!!

|--------------9-------------------------9------------------14-12-16-17----------------|
|----10----10-----12~-10-10-----10----10----12~-10-10-14-12----------------------------|
|-10----10-------------------10----10-------------------------------------8------------|
|--------------------------------------------------------------------------------------|
|---------------------------------------------------------------------------0h6\-8/6~--|

|--------------------------------------------------------------------------------|
|--------------------------------------------------------------------------------|
|------------------7------------------5-3--7------------------------7------------|
|------------8---8---10~-8-8------5-3--------0----------------8---8---10~--8-8---|
|-6-6--6\8-8---8--------------5-3--------------6-6--6--6-6--8---8----------------|
            

comments powered by Disqus
↑ Back to top | Victor Wooten Bass for Joe's Journey. Lyrics for acoustic guitar and electric guitar. Tablatures and chords are parodies/interpretations of the original songs. You may use it for private study, scholarship, research or language learning purposes only